  0
SECTION
  2
HEADER
  9
$LIMMIN
 10
0
 20
0
  9
$LIMMAX
 10
71.75
 20
100
  9
$EXTMIN
 10
0
 20
49.6528765592005
  9
$EXTMAX
 10
0
 20
16.5
  0
ENDSEC
  0
SECTION
  2
TABLES
  0
TABLE
  2
LTYPE
 70
9
  0
LTYPE
  2
CONTINUOUS
 70
64
  3
Solid line
 72
65
 73
0
 40
0
  0
LTYPE
  2
DASHED
 70
64
  3
__ __ __ __ __ __ __ __ __
 72
65
 73
2
 40
0.75
 49
0.5
 49
-0.25
  0
LTYPE
  2
DOT
 70
64
  3
...........................
 72
65
 73
2
 40
0.25
 49
0
 49
-0.25
  0
LTYPE
  2
DASHDOT
 70
64
  3
__ . __ . __ . __ . __ . __ . 
 72
65
 73
4
 40
1
 49
0.5
 49
-0.25
 49
0
 49
-0.25
  0
ENDTAB
  0
TABLE
  2
LAYER
 70
10
  0
LAYER
  2
1
 70
0
 62
7
  6
CONTINUOUS
  0
LAYER
  2
CONNECTIONS
 70
0
 62
-7
  6
CONTINUOUS
  0
ENDTAB
  0
ENDSEC
  0
SECTION
  2
BLOCKS
  0
BLOCK
  8
0
  2
TRICON
 70
0
 10
0
 20
0
  0
POLYLINE
  8
1
 70
1
 66
1
 40
0.5
 41
0.5
  0
VERTEX
  8
1
 10
-0.25
 20
0
 42
1
  0
VERTEX
  8
1
 10
0.25
 20
0
 42
1
  0
SEQEND
  8
1
  0
ENDBLK
  8
0
  0
BLOCK
  8
0
  2
TRICONSMALL
 70
0
 10
0
 20
0
  0
POLYLINE
  8
1
 70
1
 66
1
 40
0.25
 41
0.25
  0
VERTEX
  8
1
 10
-0.125
 20
0
 42
1
  0
VERTEX
  8
1
 10
0.125
 20
0
 42
1
  0
SEQEND
  8
1
  0
ENDBLK
  8
0
  0
BLOCK
  8
0
  2
TRICONCIRCLE
 70
0
 10
0
 20
0
  0
CIRCLE
  8
1
 10
0
 20
0
 40
0.5
  0
ENDBLK
  8
0
  0
BLOCK
  8
0
  2
LCBP0
 70
0
 10
0
 20
0
  0
LINE
  8
1
 10
0
 20
-0.46875
 11
0
 21
0.46875
  0
ENDBLK
  8
0
  0
BLOCK
  8
0
  2
LCBP1
 70
0
 10
0
 20
0
  0
LINE
  8
1
 10
0
 20
-0.625
 11
0
 21
0.625
  0
ENDBLK
  8
0
  0
BLOCK
  8
0
  2
LCBP2
 70
0
 10
0
 20
0
  0
LINE
  8
1
 10
0
 20
-0.9375
 11
0
 21
0.9375
  0
ENDBLK
  8
0
  0
BLOCK
  8
0
  2
LCA1
 70
0
 10
0
 20
0
  0
SOLID
  8
1
 62
7 
 10
0
 20
0
 11
-1.4
 21
-0.275
 12
-1.4
 22
0.275
 13
-1.4
 23
0.275
  0
ENDBLK
  8
0
  0
BLOCK
  8
0
  2
LCA2
 70
0
 10
0
 20
0
  0
SOLID
  8
1
 62
7 
 10
0
 20
0
 11
-1.65
 21
-0.525
 12
-1.65
 22
0.525
 13
-1.65
 23
0.525
  0
ENDBLK
  8
0
  0
BLOCK
  8
0
  2
LCA3
 70
0
 10
0
 20
0
  0
SOLID
  8
1
 62
7 
 10
0
 20
0
 11
-2.15
 21
-1.15
 12
-2.15
 22
1.15
 13
-2.15
 23
1.15
  0
ENDBLK
  8
0
  0
BLOCK
  8
0
  2
LCA1R
 70
0
 10
0
 20
0
  0
SOLID
  8
1
 62
7 
 10
0
 20
0
 11
1.4
 21
-0.275
 12
1.4
 22
0.275
 13
1.4
 23
0.275
  0
ENDBLK
  8
0
  0
BLOCK
  8
0
  2
LCA2R
 70
0
 10
0
 20
0
  0
SOLID
  8
1
 62
7 
 10
0
 20
0
 11
1.65
 21
-0.525
 12
1.65
 22
0.525
 13
1.65
 23
0.525
  0
ENDBLK
  8
0
  0
BLOCK
  8
0
  2
LCA3R
 70
0
 10
0
 20
0
  0
SOLID
  8
1
 62
7 
 10
0
 20
0
 11
2.15
 21
-1.15
 12
2.15
 22
1.15
 13
2.15
 23
1.15
  0
ENDBLK
  8
0
  0
BLOCK
  8
0
  2
B164858_00991456
 70
0
 10
0
 20
0
  0
LINE
  8
1
 10
2.03197352346325
 20
4.62923681353713
 11
2.03197352346325
 21
6.87923681353713
  0
LINE
  8
1
 10
2.03197352346325
 20
-5.12076318646287
 11
2.03197352346325
 21
-6.62076318646287
  0
POLYLINE
  8
1
  6
DOT
 66
1
  0
VERTEX
  8
1
 10
1.28197352346325
 20
-2.12076318646287
  0
VERTEX
  8
1
 10
0.531973523463245
 20
-2.87076318646288
  0
VERTEX
  8
1
 10
-0.968026476536755
 20
-2.87076318646288
  0
SEQEND
  8
1
  0
LINE
  8
1
  6
DOT
 10
-3.96802647653675
 20
-2.87076318646287
 11
-0.968026476536754
 21
-2.87076318646287
  0
LINE
  8
1
 10
2.03197352346325
 20
-6.62076318646287
 11
2.03197352346325
 21
-9.62076318646287
  0
LINE
  8
1
 10
2.03197352346325
 20
9.87923681353713
 11
2.03197352346325
 21
6.87923681353713
  0
POLYLINE
  8
1
 66
1
  0
VERTEX
  8
1
 10
-0.968026476536755
 20
-6.62076318646285
  0
VERTEX
  8
1
 10
5.03197352346325
 20
-6.62076318646285
  0
VERTEX
  8
1
 10
5.03197352346325
 20
6.87923681353715
  0
VERTEX
  8
1
 10
-0.968026476536755
 20
6.87923681353715
  0
VERTEX
  8
1
 10
-0.968026476536755
 20
-6.62076318646285
  0
SEQEND
  8
1
  0
LINE
  8
1
 10
2.03197352346325
 20
-0.99576318646287
 11
2.03197352346325
 21
4.62923681353713
  0
POLYLINE
  8
1
 66
1
  0
VERTEX
  8
1
 10
2.03197352346324
 20
2.75423681353712
  0
VERTEX
  8
1
 10
0.531973523463245
 20
2.44173681353713
  0
VERTEX
  8
1
 10
3.53197352346325
 20
1.81673681353713
  0
VERTEX
  8
1
 10
0.531973523463245
 20
1.19173681353713
  0
VERTEX
  8
1
 10
3.53197352346325
 20
0.566736813537119
  0
VERTEX
  8
1
 10
0.531973523463245
 20
-0.0582631864628667
  0
VERTEX
  8
1
 10
3.53197352346325
 20
-0.683263186462867
  0
VERTEX
  8
1
 10
2.03197352346324
 20
-0.995763186462867
  0
SEQEND
  8
1
  0
CIRCLE
  8
1
 10
2.03197352346325
 20
-1.72076318646287
 40
0.75
  0
LINE
  8
1
 10
2.03197352346325
 20
-2.87076318646287
 11
2.03197352346325
 21
-5.12076318646287
  0
POLYLINE
  8
1
 66
1
  0
VERTEX
  8
1
 10
0.531973523463245
 20
-1.37076318646287
  0
VERTEX
  8
1
 10
2.03197352346324
 20
-2.87076318646288
  0
VERTEX
  8
1
 10
3.53197352346325
 20
-1.37076318646287
  0
SEQEND
  8
1
  0
CIRCLE
  8
CONNECTIONS
 10
2.03197352346325
 20
9.87923681353713
 40
0
  0
CIRCLE
  8
CONNECTIONS
 10
2.03197352346325
 20
-9.62076318646287
 40
0
  0
CIRCLE
  8
CONNECTIONS
 10
-3.96802647653675
 20
-2.87076318646287
 40
0
  0
ENDBLK
  8
0
  0
BLOCK
  8
0
  2
B164868
 70
0
 10
0
 20
0
  0
TEXT
  8
1
 40
1.51875
 41
0.75
  1
21
  7
STANDARD
 10
-1.69181776046753
 20
-0.945794320106506
  0
ENDBLK
  8
0
  0
BLOCK
  8
0
  2
B164869
 70
0
 10
0
 20
0
  0
TEXT
  8
1
 40
1.51875
 41
0.75
  1
1
  7
STANDARD
 72
2
 10
1.04122138023376
 20
-0.945794320106506
 11
1.04122138023376
 21
-0.945794320106506
  0
ENDBLK
  8
0
  0
BLOCK
  8
0
  2
B164870_00993478
 70
0
 10
0
 20
0
  0
POLYLINE
  8
1
 66
1
  0
VERTEX
  8
1
 10
-15
 20
6.75
  0
VERTEX
  8
1
 10
15
 20
6.75
  0
VERTEX
  8
1
 10
15
 20
-8.25
  0
VERTEX
  8
1
 10
-15
 20
-8.25
  0
VERTEX
  8
1
 10
-15
 20
6.75
  0
SEQEND
  8
1
  0
POLYLINE
  8
1
 70
1
 66
1
 40
0.375
 41
0.375
  0
VERTEX
  8
1
 10
2.8125
 20
-5.25
 42
1
  0
VERTEX
  8
1
 10
3.1875
 20
-5.25
 42
1
  0
SEQEND
  8
1
  0
LINE
  8
1
 10
3
 20
3.75
 11
3
 21
6.75
  0
LINE
  8
1
 10
3
 20
-2.25
 11
3
 21
-5.25
  0
LINE
  8
1
 10
15
 20
-5.25
 11
-15
 21
-5.25
  0
POLYLINE
  8
1
 66
1
  0
VERTEX
  8
1
 10
9.75
 20
-0.75
  0
VERTEX
  8
1
 10
9.43750000000002
 20
-2.25
  0
VERTEX
  8
1
 10
8.8125
 20
0.75
  0
VERTEX
  8
1
 10
8.1875
 20
-2.25
  0
VERTEX
  8
1
 10
7.56250000000002
 20
0.75
  0
VERTEX
  8
1
 10
6.9375
 20
-2.25
  0
VERTEX
  8
1
 10
6.3125
 20
0.75
  0
VERTEX
  8
1
 10
6
 20
-0.75
  0
SEQEND
  8
1
  0
LINE
  8
1
 10
-9
 20
0.375
 11
-6
 21
0.375
  0
LINE
  8
1
 10
-9
 20
0.75
 11
-9
 21
-1.5
  0
LINE
  8
1
 10
-9
 20
-1.125
 11
-6
 21
-1.125
  0
LINE
  8
1
 10
-6
 20
-2.25
 11
-6
 21
0.75
  0
LINE
  8
1
 10
3
 20
3.75
 11
3
 21
2.25
  0
INSERT
  8
1
  2
LCBP1
 10
3
 20
2.25
 50
-90
  0
LINE
  8
1
 10
3
 20
-2.25
 11
3
 21
-0.75
  0
INSERT
  8
1
  2
LCBP1
 10
3
 20
-0.75
 50
90
  0
POLYLINE
  8
1
 66
1
  0
VERTEX
  8
1
 10
0
 20
3.75
  0
VERTEX
  8
1
 10
6
 20
3.75
  0
VERTEX
  8
1
 10
6
 20
-2.25
  0
VERTEX
  8
1
 10
0
 20
-2.25
  0
VERTEX
  8
1
 10
0
 20
3.75
  0
SEQEND
  8
1
  0
LINE
  8
1
 10
-3
 20
-2.25
 11
-3
 21
3.75
  0
INSERT
  8
1
  2
LCA1
 10
-3
 20
3.75
 50
90
  0
POLYLINE
  8
1
 66
1
  0
VERTEX
  8
1
 10
-6
 20
3.75
  0
VERTEX
  8
1
 10
0
 20
3.75
  0
VERTEX
  8
1
 10
0
 20
-2.25
  0
VERTEX
  8
1
 10
-6
 20
-2.25
  0
VERTEX
  8
1
 10
-6
 20
3.75
  0
SEQEND
  8
1
  0
POLYLINE
  8
1
 66
1
  0
VERTEX
  8
1
 10
2.25
 20
6.75
  0
VERTEX
  8
1
 10
3
 20
8.25
  0
VERTEX
  8
1
 10
3.75
 20
6.75
  0
SEQEND
  8
1
  0
CIRCLE
  8
CONNECTIONS
 10
15
 20
-5.25
 40
0
  0
CIRCLE
  8
CONNECTIONS
 10
-15
 20
-5.25
 40
0
  0
ENDBLK
  8
0
  0
BLOCK
  8
0
  2
B164880
 70
0
 10
0
 20
0
  0
TEXT
  8
1
 40
1.51875
 41
0.75
  1
2
  7
STANDARD
 72
2
 10
1.04122138023376
 20
-0.945794320106506
 11
1.04122138023376
 21
-0.945794320106506
  0
ENDBLK
  8
0
  0
ENDSEC
  0
SECTION
  2
ENTITIES
  0
INSERT
  8
1
  2
B164858_00991456
 10
176.296827841148
 20
5.03197958105751
 50
270
  0
INSERT
  8
1
  2
B164868
 10
175.131233974791
 20
8.37213534405323
  0
INSERT
  8
1
  2
B164869
 10
167.564411453598
 20
4.08430637567376
  0
INSERT
  8
1
  2
B164870_00993478
 10
201.176066632565
 20
8.25
  0
INSERT
  8
1
  2
B164880
 10
214.772526617344
 20
4.33016932010653
  0
ENDSEC
  0
EOF
