  0
SECTION
  2
HEADER
  9
$LIMMIN
 10
0
 20
0
  9
$LIMMAX
 10
52.5
 20
74.25
  9
$EXTMIN
 10
0
 20
73
  9
$EXTMAX
 10
0
 20
28
  0
ENDSEC
  0
SECTION
  2
TABLES
  0
TABLE
  2
LTYPE
 70
9
  0
LTYPE
  2
CONTINUOUS
 70
64
  3
Solid line
 72
65
 73
0
 40
0
  0
LTYPE
  2
DASHED
 70
64
  3
__ __ __ __ __ __ __ __ __
 72
65
 73
2
 40
0.75
 49
0.5
 49
-0.25
  0
LTYPE
  2
DOT
 70
64
  3
...........................
 72
65
 73
2
 40
0.25
 49
0
 49
-0.25
  0
LTYPE
  2
DASHDOT
 70
64
  3
__ . __ . __ . __ . __ . __ . 
 72
65
 73
4
 40
1
 49
0.5
 49
-0.25
 49
0
 49
-0.25
  0
ENDTAB
  0
TABLE
  2
LAYER
 70
10
  0
LAYER
  2
1
 70
0
 62
7
  6
CONTINUOUS
  0
LAYER
  2
CONNECTIONS
 70
0
 62
-7
  6
CONTINUOUS
  0
ENDTAB
  0
ENDSEC
  0
SECTION
  2
BLOCKS
  0
BLOCK
  8
0
  2
TRICON
 70
0
 10
0
 20
0
  0
POLYLINE
  8
1
 70
1
 66
1
 40
0.5
 41
0.5
  0
VERTEX
  8
1
 10
-0.25
 20
0
 42
1
  0
VERTEX
  8
1
 10
0.25
 20
0
 42
1
  0
SEQEND
  8
1
  0
ENDBLK
  8
0
  0
BLOCK
  8
0
  2
TRICONSMALL
 70
0
 10
0
 20
0
  0
POLYLINE
  8
1
 70
1
 66
1
 40
0.25
 41
0.25
  0
VERTEX
  8
1
 10
-0.125
 20
0
 42
1
  0
VERTEX
  8
1
 10
0.125
 20
0
 42
1
  0
SEQEND
  8
1
  0
ENDBLK
  8
0
  0
BLOCK
  8
0
  2
TRICONCIRCLE
 70
0
 10
0
 20
0
  0
CIRCLE
  8
1
 10
0
 20
0
 40
0.5
  0
ENDBLK
  8
0
  0
BLOCK
  8
0
  2
LCBP0
 70
0
 10
0
 20
0
  0
LINE
  8
1
 10
0
 20
-0.46875
 11
0
 21
0.46875
  0
ENDBLK
  8
0
  0
BLOCK
  8
0
  2
LCBP1
 70
0
 10
0
 20
0
  0
LINE
  8
1
 10
0
 20
-0.625
 11
0
 21
0.625
  0
ENDBLK
  8
0
  0
BLOCK
  8
0
  2
LCBP2
 70
0
 10
0
 20
0
  0
LINE
  8
1
 10
0
 20
-0.9375
 11
0
 21
0.9375
  0
ENDBLK
  8
0
  0
BLOCK
  8
0
  2
LCA1
 70
0
 10
0
 20
0
  0
SOLID
  8
1
 62
7 
 10
0
 20
0
 11
-1.4
 21
-0.275
 12
-1.4
 22
0.275
 13
-1.4
 23
0.275
  0
ENDBLK
  8
0
  0
BLOCK
  8
0
  2
LCA2
 70
0
 10
0
 20
0
  0
SOLID
  8
1
 62
7 
 10
0
 20
0
 11
-1.65
 21
-0.525
 12
-1.65
 22
0.525
 13
-1.65
 23
0.525
  0
ENDBLK
  8
0
  0
BLOCK
  8
0
  2
LCA3
 70
0
 10
0
 20
0
  0
SOLID
  8
1
 62
7 
 10
0
 20
0
 11
-2.15
 21
-1.15
 12
-2.15
 22
1.15
 13
-2.15
 23
1.15
  0
ENDBLK
  8
0
  0
BLOCK
  8
0
  2
LCA1R
 70
0
 10
0
 20
0
  0
SOLID
  8
1
 62
7 
 10
0
 20
0
 11
1.4
 21
-0.275
 12
1.4
 22
0.275
 13
1.4
 23
0.275
  0
ENDBLK
  8
0
  0
BLOCK
  8
0
  2
LCA2R
 70
0
 10
0
 20
0
  0
SOLID
  8
1
 62
7 
 10
0
 20
0
 11
1.65
 21
-0.525
 12
1.65
 22
0.525
 13
1.65
 23
0.525
  0
ENDBLK
  8
0
  0
BLOCK
  8
0
  2
LCA3R
 70
0
 10
0
 20
0
  0
SOLID
  8
1
 62
7 
 10
0
 20
0
 11
2.15
 21
-1.15
 12
2.15
 22
1.15
 13
2.15
 23
1.15
  0
ENDBLK
  8
0
  0
BLOCK
  8
0
  2
B124711_00997337
 70
0
 10
0
 20
0
  0
POLYLINE
  8
1
 66
1
  0
VERTEX
  8
1
 10
-36.5
 20
10
  0
VERTEX
  8
1
 10
36.5
 20
10
  0
VERTEX
  8
1
 10
36.5
 20
-10
  0
VERTEX
  8
1
 10
-36.5
 20
-10
  0
VERTEX
  8
1
 10
-36.5
 20
10
  0
SEQEND
  8
1
  0
TEXT
  8
1
 40
2.475
 41
0.75
  1
12
  7
STANDARD
 72
2
 10
8.43234316507975
 20
3.0375
 11
8.43234316507975
 21
3.0375
  0
TEXT
  8
1
 40
2.475
 41
0.75
  1
14
  7
STANDARD
 73
2
 10
-33.4323431650798
 20
4.6
 11
-33.4323431650798
 21
4.6
  0
TEXT
  8
1
 40
2.475
 41
0.75
  1
1
  7
STANDARD
 72
2
 10
-15.1263619599859
 20
-14.3335603266643
 11
-15.1263619599859
 21
-14.3335603266643
  0
TEXT
  8
1
 40
2.475
 41
0.75
  1
3
  7
STANDARD
 10
-9.58939673335678
 20
-14.1914396733357
  0
TEXT
  8
1
 40
2.475
 41
0.75
  1
4
  7
STANDARD
 72
2
 10
-15.3395429399789
 20
11.2375
 11
-15.3395429399789
 21
11.2375
  0
TEXT
  8
1
 40
2.475
 41
0.75
  1
2
  7
STANDARD
 72
2
 10
20.6604570600211
 20
11.2375
 11
20.6604570600211
 21
11.2375
  0
LINE
  8
1
 10
-14.5
 20
-10
 11
-14.5
 21
-14
  0
LINE
  8
1
 10
-10.5
 20
-10
 11
-10.5
 21
-14
  0
LINE
  8
1
 10
21.5
 20
10
 11
21.5
 21
14
  0
LINE
  8
1
 10
-14.5
 20
10
 11
-14.5
 21
14
  0
LINE
  8
1
 10
21.5
 20
6
 11
21.5
 21
10
  0
LINE
  8
1
 10
-14.5
 20
6
 11
-14.5
 21
10
  0
LINE
  8
1
 10
-10.5
 20
-2
 11
-10.5
 21
-10
  0
LINE
  8
1
 10
-14.5
 20
-2
 11
-14.5
 21
-10
  0
POLYLINE
  8
1
 70
1
 66
1
 40
0.6
 41
0.6
  0
VERTEX
  8
1
 10
-10.8
 20
-6
 42
1
  0
VERTEX
  8
1
 10
-10.2
 20
-6
 42
1
  0
SEQEND
  8
1
  0
LINE
  8
1
  6
DOT
 10
25.5
 20
-6
 11
25.5
 21
-2
  0
LINE
  8
1
  6
DOT
 10
-10.5
 20
-6
 11
25.5
 21
-6
  0
LINE
  8
1
  6
DOT
 10
21.5
 20
-4
 11
21.5
 21
-2
  0
POLYLINE
  8
1
 70
1
 66
1
 40
0.6
 41
0.6
  0
VERTEX
  8
1
 10
-14.8
 20
-4
 42
1
  0
VERTEX
  8
1
 10
-14.2
 20
-4
 42
1
  0
SEQEND
  8
1
  0
LINE
  8
1
  6
DOT
 10
-14.5
 20
-4
 11
21.5
 21
-4
  0
POLYLINE
  8
1
 66
1
  0
VERTEX
  8
1
 10
32.5
 20
0
  0
VERTEX
  8
1
 10
32.0833333333333
 20
-2
  0
VERTEX
  8
1
 10
31.25
 20
2
  0
VERTEX
  8
1
 10
30.4166666666668
 20
-2
  0
VERTEX
  8
1
 10
29.5833333333332
 20
2
  0
VERTEX
  8
1
 10
28.75
 20
-2
  0
VERTEX
  8
1
 10
27.9166666666668
 20
2
  0
VERTEX
  8
1
 10
27.5
 20
0
  0
SEQEND
  8
1
  0
POLYLINE
  8
1
 66
1
  0
VERTEX
  8
1
 10
-3.5
 20
0
  0
VERTEX
  8
1
 10
-3.91666666666672
 20
-2
  0
VERTEX
  8
1
 10
-4.75
 20
2
  0
VERTEX
  8
1
 10
-5.58333333333325
 20
-2
  0
VERTEX
  8
1
 10
-6.41666666666675
 20
2
  0
VERTEX
  8
1
 10
-7.25
 20
-2
  0
VERTEX
  8
1
 10
-8.08333333333325
 20
2
  0
VERTEX
  8
1
 10
-8.5
 20
0
  0
SEQEND
  8
1
  0
LINE
  8
1
 10
21.5
 20
-2
 11
21.5
 21
0
  0
INSERT
  8
1
  2
LCBP1
 10
21.5
 20
0
 50
90
  0
POLYLINE
  8
1
 66
1
  0
VERTEX
  8
1
 10
19.5
 20
6
  0
VERTEX
  8
1
 10
27.5
 20
6
  0
VERTEX
  8
1
 10
27.5
 20
-2
  0
VERTEX
  8
1
 10
19.5
 20
-2
  0
VERTEX
  8
1
 10
19.5
 20
6
  0
SEQEND
  8
1
  0
LINE
  8
1
 10
21.5
 20
6
 11
25.5
 21
-2
  0
INSERT
  8
1
  2
LCA1
 10
25.5
 20
-2
 50
-63.434948822922
  0
INSERT
  8
1
  2
LCA1R
 10
21.5
 20
6
 50
-63.434948822922
  0
LINE
  8
1
 10
-14.5
 20
-2
 11
-14.5
 21
0
  0
INSERT
  8
1
  2
LCBP1
 10
-14.5
 20
0
 50
90
  0
POLYLINE
  8
1
 66
1
  0
VERTEX
  8
1
 10
-16.5
 20
6
  0
VERTEX
  8
1
 10
-8.5
 20
6
  0
VERTEX
  8
1
 10
-8.5
 20
-2
  0
VERTEX
  8
1
 10
-16.5
 20
-2
  0
VERTEX
  8
1
 10
-16.5
 20
6
  0
SEQEND
  8
1
  0
LINE
  8
1
 10
-14.5
 20
6
 11
-10.5
 21
-2
  0
INSERT
  8
1
  2
LCA1
 10
-10.5
 20
-2
 50
-63.434948822922
  0
INSERT
  8
1
  2
LCA1R
 10
-14.5
 20
6
 50
-63.434948822922
  0
LINE
  8
1
 10
17.5
 20
-2
 11
17.5
 21
0
  0
INSERT
  8
1
  2
LCBP1
 10
17.5
 20
0
 50
90
  0
POLYLINE
  8
1
 66
1
  0
VERTEX
  8
1
 10
11.5
 20
6
  0
VERTEX
  8
1
 10
19.5
 20
6
  0
VERTEX
  8
1
 10
19.5
 20
-2
  0
VERTEX
  8
1
 10
11.5
 20
-2
  0
VERTEX
  8
1
 10
11.5
 20
6
  0
SEQEND
  8
1
  0
LINE
  8
1
 10
13.5
 20
-2
 11
13.5
 21
6
  0
INSERT
  8
1
  2
LCA1
 10
13.5
 20
6
 50
90
  0
INSERT
  8
1
  2
LCA1R
 10
13.5
 20
-2
 50
90
  0
LINE
  8
1
 10
-18.5
 20
-2
 11
-18.5
 21
0
  0
INSERT
  8
1
  2
LCBP1
 10
-18.5
 20
0
 50
90
  0
POLYLINE
  8
1
 66
1
  0
VERTEX
  8
1
 10
-24.5
 20
6
  0
VERTEX
  8
1
 10
-16.5
 20
6
  0
VERTEX
  8
1
 10
-16.5
 20
-2
  0
VERTEX
  8
1
 10
-24.5
 20
-2
  0
VERTEX
  8
1
 10
-24.5
 20
6
  0
SEQEND
  8
1
  0
LINE
  8
1
 10
-22.5
 20
-2
 11
-22.5
 21
6
  0
INSERT
  8
1
  2
LCA1
 10
-22.5
 20
6
 50
90
  0
INSERT
  8
1
  2
LCA1R
 10
-22.5
 20
-2
 50
90
  0
CIRCLE
  8
CONNECTIONS
 10
-10.5
 20
-14
 40
0
  0
CIRCLE
  8
CONNECTIONS
 10
-14.5
 20
-14
 40
0
  0
CIRCLE
  8
CONNECTIONS
 10
-14.5
 20
14
 40
0
  0
CIRCLE
  8
CONNECTIONS
 10
21.5
 20
14
 40
0
  0
ENDBLK
  8
0
  0
ENDSEC
  0
SECTION
  2
ENTITIES
  0
INSERT
  8
1
  2
B124711_00997337
 10
36.5
 20
14
  0
ENDSEC
  0
EOF
