  0
SECTION
  2
HEADER
  9
$LIMMIN
 10
0
 20
0
  9
$LIMMAX
 10
52.5
 20
74.25
  9
$EXTMIN
 10
0
 20
76
  9
$EXTMAX
 10
0
 20
42
  0
ENDSEC
  0
SECTION
  2
TABLES
  0
TABLE
  2
LTYPE
 70
9
  0
LTYPE
  2
CONTINUOUS
 70
64
  3
Solid line
 72
65
 73
0
 40
0
  0
LTYPE
  2
DASHED
 70
64
  3
__ __ __ __ __ __ __ __ __
 72
65
 73
2
 40
0.75
 49
0.5
 49
-0.25
  0
LTYPE
  2
DOT
 70
64
  3
...........................
 72
65
 73
2
 40
0.25
 49
0
 49
-0.25
  0
LTYPE
  2
DASHDOT
 70
64
  3
__ . __ . __ . __ . __ . __ . 
 72
65
 73
4
 40
1
 49
0.5
 49
-0.25
 49
0
 49
-0.25
  0
ENDTAB
  0
TABLE
  2
LAYER
 70
10
  0
LAYER
  2
1
 70
0
 62
7
  6
CONTINUOUS
  0
LAYER
  2
CONNECTIONS
 70
0
 62
-7
  6
CONTINUOUS
  0
ENDTAB
  0
ENDSEC
  0
SECTION
  2
BLOCKS
  0
BLOCK
  8
0
  2
TRICON
 70
0
 10
0
 20
0
  0
POLYLINE
  8
1
 70
1
 66
1
 40
0.5
 41
0.5
  0
VERTEX
  8
1
 10
-0.25
 20
0
 42
1
  0
VERTEX
  8
1
 10
0.25
 20
0
 42
1
  0
SEQEND
  8
1
  0
ENDBLK
  8
0
  0
BLOCK
  8
0
  2
TRICONSMALL
 70
0
 10
0
 20
0
  0
POLYLINE
  8
1
 70
1
 66
1
 40
0.25
 41
0.25
  0
VERTEX
  8
1
 10
-0.125
 20
0
 42
1
  0
VERTEX
  8
1
 10
0.125
 20
0
 42
1
  0
SEQEND
  8
1
  0
ENDBLK
  8
0
  0
BLOCK
  8
0
  2
TRICONCIRCLE
 70
0
 10
0
 20
0
  0
CIRCLE
  8
1
 10
0
 20
0
 40
0.5
  0
ENDBLK
  8
0
  0
BLOCK
  8
0
  2
LCBP0
 70
0
 10
0
 20
0
  0
LINE
  8
1
 10
0
 20
-0.46875
 11
0
 21
0.46875
  0
ENDBLK
  8
0
  0
BLOCK
  8
0
  2
LCBP1
 70
0
 10
0
 20
0
  0
LINE
  8
1
 10
0
 20
-0.625
 11
0
 21
0.625
  0
ENDBLK
  8
0
  0
BLOCK
  8
0
  2
LCBP2
 70
0
 10
0
 20
0
  0
LINE
  8
1
 10
0
 20
-0.9375
 11
0
 21
0.9375
  0
ENDBLK
  8
0
  0
BLOCK
  8
0
  2
LCA1
 70
0
 10
0
 20
0
  0
SOLID
  8
1
 62
7 
 10
0
 20
0
 11
-1.4
 21
-0.275
 12
-1.4
 22
0.275
 13
-1.4
 23
0.275
  0
ENDBLK
  8
0
  0
BLOCK
  8
0
  2
LCA2
 70
0
 10
0
 20
0
  0
SOLID
  8
1
 62
7 
 10
0
 20
0
 11
-1.65
 21
-0.525
 12
-1.65
 22
0.525
 13
-1.65
 23
0.525
  0
ENDBLK
  8
0
  0
BLOCK
  8
0
  2
LCA3
 70
0
 10
0
 20
0
  0
SOLID
  8
1
 62
7 
 10
0
 20
0
 11
-2.15
 21
-1.15
 12
-2.15
 22
1.15
 13
-2.15
 23
1.15
  0
ENDBLK
  8
0
  0
BLOCK
  8
0
  2
LCA1R
 70
0
 10
0
 20
0
  0
SOLID
  8
1
 62
7 
 10
0
 20
0
 11
1.4
 21
-0.275
 12
1.4
 22
0.275
 13
1.4
 23
0.275
  0
ENDBLK
  8
0
  0
BLOCK
  8
0
  2
LCA2R
 70
0
 10
0
 20
0
  0
SOLID
  8
1
 62
7 
 10
0
 20
0
 11
1.65
 21
-0.525
 12
1.65
 22
0.525
 13
1.65
 23
0.525
  0
ENDBLK
  8
0
  0
BLOCK
  8
0
  2
LCA3R
 70
0
 10
0
 20
0
  0
SOLID
  8
1
 62
7 
 10
0
 20
0
 11
2.15
 21
-1.15
 12
2.15
 22
1.15
 13
2.15
 23
1.15
  0
ENDBLK
  8
0
  0
BLOCK
  8
0
  2
B196989_00995976
 70
0
 10
0
 20
0
  0
POLYLINE
  8
1
 66
1
  0
VERTEX
  8
1
 10
-38
 20
21
  0
VERTEX
  8
1
 10
38
 20
21
  0
VERTEX
  8
1
 10
38
 20
-17
  0
VERTEX
  8
1
 10
-38
 20
-17
  0
VERTEX
  8
1
 10
-38
 20
21
  0
SEQEND
  8
1
  0
TEXT
  8
1
 40
2.4749997138977
 41
0.75
  1
12/14
  7
STANDARD
 72
2
 10
-11.9353136698405
 20
-15.0625001430511
 11
-11.9353136698405
 21
-15.0625001430511
  0
TEXT
  8
1
 40
2.4
 41
0.75
  1
3
  7
STANDARD
 73
2
 10
24.6347783406576
 20
-20.1277667681376
 11
24.6347783406576
 21
-20.1277667681376
  0
TEXT
  8
1
 40
2.4
 41
0.75
  1
1
  7
STANDARD
 72
2
 73
2
 10
15.4652216593425
 20
-20.1277667681376
 11
15.4652216593425
 21
-20.1277667681376
  0
TEXT
  8
1
 40
2.4
 41
0.75
  1
2(1)
  7
STANDARD
 10
24.5000006357829
 20
22.4
  0
TEXT
  8
1
 40
2.4
 41
0.75
  1
(14)4
  7
STANDARD
 72
2
 10
15.7652216593424
 20
22.4
 11
15.7652216593424
 21
22.4
  0
LINE
  8
1
 10
24
 20
-17
 11
24
 21
-21
  0
LINE
  8
1
 10
24
 20
14
 11
28
 21
14
  0
POLYLINE
  8
1
 70
1
 66
1
 40
0.5
 41
0.5
  0
VERTEX
  8
1
 10
23.75
 20
14
 42
1
  0
VERTEX
  8
1
 10
24.25
 20
14
 42
1
  0
SEQEND
  8
1
  0
LINE
  8
1
 10
-18
 20
1
 11
-22
 21
1
  0
POLYLINE
  8
1
 70
1
 66
1
 40
0.5
 41
0.5
  0
VERTEX
  8
1
 10
1.75
 20
-3
 42
1
  0
VERTEX
  8
1
 10
2.25
 20
-3
 42
1
  0
SEQEND
  8
1
  0
LINE
  8
1
 10
-34
 20
1
 11
-30
 21
1
  0
LINE
  8
1
 10
-34
 20
1
 11
-34
 21
-11
  0
LINE
  8
1
 10
-34
 20
-11
 11
-15
 21
-11
  0
LINE
  8
1
 10
-15
 20
-3
 11
-15
 21
-11
  0
LINE
  8
1
 10
-15
 20
-3
 11
2
 21
-3
  0
LINE
  8
1
 10
-28
 20
13
 11
-28
 21
14
  0
LINE
  8
1
 10
13
 20
14
 11
-28
 21
14
  0
LINE
  8
1
 10
13
 20
14
 11
24
 21
14
  0
POLYLINE
  8
1
 70
1
 66
1
 40
0.5
 41
0.5
  0
VERTEX
  8
1
 10
23.75
 20
14
 42
1
  0
VERTEX
  8
1
 10
24.25
 20
14
 42
1
  0
SEQEND
  8
1
  0
LINE
  8
1
 10
16
 20
-17
 11
16
 21
-1
  0
LINE
  8
1
 10
24
 20
-17
 11
24
 21
-1
  0
LINE
  8
1
 10
16
 20
7
 11
16
 21
21
  0
LINE
  8
1
 10
24
 20
7
 11
24
 21
21
  0
POLYLINE
  8
1
 66
1
  0
VERTEX
  8
1
 10
20
 20
-1
  0
VERTEX
  8
1
 10
20
 20
-5
  0
VERTEX
  8
1
 10
16
 20
-5
  0
SEQEND
  8
1
  0
POLYLINE
  8
1
 70
1
 66
1
 40
0.5
 41
0.5
  0
VERTEX
  8
1
 10
15.75
 20
-5
 42
1
  0
VERTEX
  8
1
 10
16.25
 20
-5
 42
1
  0
SEQEND
  8
1
  0
LINE
  8
1
 10
-8
 20
-5.5
 11
-4
 21
-5.5
  0
LINE
  8
1
 10
-8
 20
-5
 11
-8
 21
-8
  0
LINE
  8
1
 10
-8
 20
-7.5
 11
-4
 21
-7.5
  0
LINE
  8
1
 10
-4
 20
-9
 11
-4
 21
-5
  0
POLYLINE
  8
1
 66
1
  0
VERTEX
  8
1
 10
31
 20
1
  0
VERTEX
  8
1
 10
30.5833333333333
 20
-1
  0
VERTEX
  8
1
 10
29.75
 20
3
  0
VERTEX
  8
1
 10
28.9166666666668
 20
-1
  0
VERTEX
  8
1
 10
28.0833333333332
 20
3
  0
VERTEX
  8
1
 10
27.25
 20
-1
  0
VERTEX
  8
1
 10
26.4166666666668
 20
3
  0
VERTEX
  8
1
 10
26
 20
1
  0
SEQEND
  8
1
  0
POLYLINE
  8
1
 66
1
  0
VERTEX
  8
1
 10
-26
 20
-3
  0
VERTEX
  8
1
 10
-30
 20
-3
  0
VERTEX
  8
1
 10
-30
 20
-9
  0
VERTEX
  8
1
 10
-26
 20
-9
  0
VERTEX
  8
1
 10
-26
 20
-3
  0
SEQEND
  8
1
  0
LINE
  8
1
 10
-26
 20
-9
 11
-28
 21
-5.53589838486224
  0
LINE
  8
1
 10
-28
 20
-5.53589838486224
 11
-28
 21
-3
  0
LINE
  8
1
 10
-30
 20
-9
 11
-28
 21
-5.53589838486224
  0
LINE
  8
1
 10
-8
 20
-13
 11
-6
 21
-9
  0
POLYLINE
  8
1
 66
1
  0
VERTEX
  8
1
 10
-10
 20
-9
  0
VERTEX
  8
1
 10
-4
 20
-9
  0
VERTEX
  8
1
 10
-4
 20
-13
  0
VERTEX
  8
1
 10
-10
 20
-13
  0
VERTEX
  8
1
 10
-10
 20
-9
  0
SEQEND
  8
1
  0
LINE
  8
1
 10
2
 20
-1
 11
2
 21
-9
  0
POLYLINE
  8
1
 66
1
  0
VERTEX
  8
1
 10
-4
 20
-9
  0
VERTEX
  8
1
 10
2
 20
-9
  0
VERTEX
  8
1
 10
2
 20
-13
  0
VERTEX
  8
1
 10
-4
 20
-13
  0
VERTEX
  8
1
 10
-4
 20
-9
  0
SEQEND
  8
1
  0
LINE
  8
1
 10
-4
 20
-9.02776740392049
 11
-0.535898384862245
 21
-11.0277674039205
  0
LINE
  8
1
 10
-4
 20
-13.0277674039205
 11
-0.535898384862245
 21
-11.0277674039205
  0
LINE
  8
1
 10
-12.5359114070309
 20
0.99999248164742
 11
-10
 21
0.99999248164742
  0
LINE
  8
1
 10
-18
 20
1
 11
-16
 21
1
  0
LINE
  8
1
 10
-16
 20
3
 11
-16
 21
-1
  0
LINE
  8
1
 10
-16
 20
3
 11
-12.5358983848622
 21
1
  0
LINE
  8
1
 10
-16
 20
-1
 11
-12.5358983848622
 21
1
  0
LINE
  8
1
 10
-28.0000075183526
 20
7.53591140703094
 11
-28.0000075183526
 21
5
  0
LINE
  8
1
 10
-28
 20
13
 11
-28
 21
11
  0
LINE
  8
1
 10
-26
 20
11
 11
-30
 21
11
  0
LINE
  8
1
 10
-26
 20
11
 11
-28
 21
7.53589838486224
  0
LINE
  8
1
 10
-30
 20
11
 11
-28
 21
7.53589838486224
  0
LINE
  8
1
 10
-21.999988428323
 20
3.00001157167706
 11
-29.999988428323
 21
3.00001157167706
  0
INSERT
  8
1
  2
LCA1R
 10
-21.999988428323
 20
3.00001157167706
 50
-180
  0
POLYLINE
  8
1
 66
1
  0
VERTEX
  8
1
 10
-30
 20
-2
  0
VERTEX
  8
1
 10
-32
 20
-1
  0
VERTEX
  8
1
 10
-30
 20
0
  0
SEQEND
  8
1
  0
POLYLINE
  8
1
 66
1
  0
VERTEX
  8
1
 10
-23.9998773402233
 20
-3.00001157167705
  0
VERTEX
  8
1
 10
-21.9998773402233
 20
-3.41667823834375
  0
VERTEX
  8
1
 10
-25.9998773402233
 20
-4.25001157167705
  0
VERTEX
  8
1
 10
-21.9998773402233
 20
-5.08334490501043
  0
VERTEX
  8
1
 10
-25.9998773402233
 20
-5.91667823834375
  0
VERTEX
  8
1
 10
-21.9998773402233
 20
-6.75001157167705
  0
VERTEX
  8
1
 10
-25.9998773402233
 20
-7.58334490501035
  0
VERTEX
  8
1
 10
-23.9998773402233
 20
-8.00001157167705
  0
SEQEND
  8
1
  0
POLYLINE
  8
1
 66
1
  0
VERTEX
  8
1
 10
-29.999988428323
 20
5.00001157167705
  0
VERTEX
  8
1
 10
-21.999988428323
 20
5.00001157167705
  0
VERTEX
  8
1
 10
-21.999988428323
 20
-2.99998842832295
  0
VERTEX
  8
1
 10
-29.999988428323
 20
-2.99998842832295
  0
VERTEX
  8
1
 10
-29.999988428323
 20
5.00001157167705
  0
SEQEND
  8
1
  0
LINE
  8
1
 10
16
 20
3
 11
24
 21
3
  0
POLYLINE
  8
1
 66
1
  0
VERTEX
  8
1
 10
16
 20
7
  0
VERTEX
  8
1
 10
16
 20
3
  0
SEQEND
  8
1
  0
POLYLINE
  8
1
 70
1
 66
1
 40
0.5
 41
0.5
  0
VERTEX
  8
1
 10
23.75
 20
3
 42
1
  0
VERTEX
  8
1
 10
24.25
 20
3
 42
1
  0
SEQEND
  8
1
  0
LINE
  8
1
 10
16
 20
-1
 11
16
 21
1
  0
INSERT
  8
1
  2
LCBP1
 10
16
 20
1
 50
90
  0
LINE
  8
1
 10
20
 20
-1
 11
20
 21
1
  0
INSERT
  8
1
  2
LCBP1
 10
20
 20
1
 50
90
  0
POLYLINE
  8
1
 66
1
  0
VERTEX
  8
1
 10
14
 20
7
  0
VERTEX
  8
1
 10
26
 20
7
  0
VERTEX
  8
1
 10
26
 20
-1
  0
VERTEX
  8
1
 10
14
 20
-1
  0
VERTEX
  8
1
 10
14
 20
7
  0
SEQEND
  8
1
  0
LINE
  8
1
 10
24
 20
7
 11
24
 21
-1
  0
INSERT
  8
1
  2
LCA1
 10
24
 20
-1
 50
-90
  0
LINE
  8
1
 10
4
 20
7
 11
4
 21
-1
  0
INSERT
  8
1
  2
LCA1R
 10
4
 20
7
 50
-90
  0
LINE
  8
1
 10
11.012191824401
 20
0.182752157280431
 11
7.89158408425433
 21
5.68382544638837
  0
INSERT
  8
1
  2
LCA1
 10
7.89158408425433
 20
5.68382544638837
 50
119.565051177078
  0
ARC
  8
1
 10
0.955802150174369
 20
7.40561740561391
 40
9
 50
313.962596800055
 51
352.905050579339
  0
ARC
  8
1
 10
18.8441978498256
 20
-1.53895073894724
 40
9
 50
133.96265870751
 51
172.90539531546
  0
LINE
  8
1
 10
8
 20
-1
 11
12
 21
7
  0
INSERT
  8
1
  2
LCA1
 10
12
 20
7
 50
63.434948822922
  0
LINE
  8
1
 10
12
 20
-1
 11
12
 21
1
  0
INSERT
  8
1
  2
LCBP1
 10
12
 20
1
 50
90
  0
POLYLINE
  8
1
 66
1
  0
VERTEX
  8
1
 10
2
 20
7
  0
VERTEX
  8
1
 10
14
 20
7
  0
VERTEX
  8
1
 10
14
 20
-1
  0
VERTEX
  8
1
 10
2
 20
-1
  0
VERTEX
  8
1
 10
2
 20
7
  0
SEQEND
  8
1
  0
LINE
  8
1
 10
-8
 20
7
 11
-8
 21
-1
  0
INSERT
  8
1
  2
LCA1R
 10
-8
 20
7
 50
-90
  0
LINE
  8
1
 10
-4
 20
-1
 11
0
 21
7
  0
INSERT
  8
1
  2
LCA1
 10
0
 20
7
 50
63.434948822922
  0
LINE
  8
1
 10
0
 20
-1
 11
0
 21
1
  0
INSERT
  8
1
  2
LCBP1
 10
0
 20
1
 50
90
  0
POLYLINE
  8
1
 66
1
  0
VERTEX
  8
1
 10
-10
 20
7
  0
VERTEX
  8
1
 10
2
 20
7
  0
VERTEX
  8
1
 10
2
 20
-1
  0
VERTEX
  8
1
 10
-10
 20
-1
  0
VERTEX
  8
1
 10
-10
 20
7
  0
SEQEND
  8
1
  0
LINE
  8
1
 10
30.5
 20
15.5
 11
31.2
 21
15.5
  0
LINE
  8
1
 10
32.65
 20
15.5
 11
33.35
 21
15.5
  0
LINE
  8
1
 10
31.2
 20
15.5
 11
33
 21
16.2
  0
ARC
  8
1
 10
29.75
 20
13
 40
0.5
 50
270
 51
90
  0
LINE
  8
1
 10
29.75
 20
12.5
 11
29
 21
12.5
  0
LINE
  8
1
 10
29
 20
13.5
 11
29.75
 21
13.5
  0
LINE
  8
1
 10
29
 20
11.65
 11
29
 21
13.5
  0
POLYLINE
  8
1
 66
1
  0
VERTEX
  8
1
 10
28
 20
17
  0
VERTEX
  8
1
 10
34
 20
17
  0
VERTEX
  8
1
 10
34
 20
11
  0
VERTEX
  8
1
 10
28
 20
11
  0
VERTEX
  8
1
 10
28
 20
17
  0
SEQEND
  8
1
  0
LINE
  8
1
 10
28
 20
17
 11
34
 21
11
  0
CIRCLE
  8
CONNECTIONS
 10
-9.85762411753336
 20
-11.0277674039205
 40
0
  0
CIRCLE
  8
CONNECTIONS
 10
16
 20
21
 40
0
  0
CIRCLE
  8
CONNECTIONS
 10
16
 20
-17
 40
0
  0
CIRCLE
  8
CONNECTIONS
 10
24
 20
-21
 40
0
  0
CIRCLE
  8
CONNECTIONS
 10
24
 20
21
 40
0
  0
ENDBLK
  8
0
  0
ENDSEC
  0
SECTION
  2
ENTITIES
  0
INSERT
  8
1
  2
B196989_00995976
 10
38
 20
21
  0
ENDSEC
  0
EOF
