  0
SECTION
  2
HEADER
  9
$LIMMIN
 10
0
 20
0
  9
$LIMMAX
 10
52.5
 20
74.25
  9
$EXTMIN
 10
0
 20
40.2703695297241
  9
$EXTMAX
 10
0
 20
41.0883675813675
  0
ENDSEC
  0
SECTION
  2
TABLES
  0
TABLE
  2
LTYPE
 70
9
  0
LTYPE
  2
CONTINUOUS
 70
64
  3
Solid line
 72
65
 73
0
 40
0
  0
LTYPE
  2
DASHED
 70
64
  3
__ __ __ __ __ __ __ __ __
 72
65
 73
2
 40
0.75
 49
0.5
 49
-0.25
  0
LTYPE
  2
DOT
 70
64
  3
...........................
 72
65
 73
2
 40
0.25
 49
0
 49
-0.25
  0
LTYPE
  2
DASHDOT
 70
64
  3
__ . __ . __ . __ . __ . __ . 
 72
65
 73
4
 40
1
 49
0.5
 49
-0.25
 49
0
 49
-0.25
  0
ENDTAB
  0
TABLE
  2
LAYER
 70
10
  0
LAYER
  2
1
 70
0
 62
7
  6
CONTINUOUS
  0
LAYER
  2
CONNECTIONS
 70
0
 62
-7
  6
CONTINUOUS
  0
ENDTAB
  0
ENDSEC
  0
SECTION
  2
BLOCKS
  0
BLOCK
  8
0
  2
TRICON
 70
0
 10
0
 20
0
  0
POLYLINE
  8
1
 70
1
 66
1
 40
0.5
 41
0.5
  0
VERTEX
  8
1
 10
-0.25
 20
0
 42
1
  0
VERTEX
  8
1
 10
0.25
 20
0
 42
1
  0
SEQEND
  8
1
  0
ENDBLK
  8
0
  0
BLOCK
  8
0
  2
TRICONSMALL
 70
0
 10
0
 20
0
  0
POLYLINE
  8
1
 70
1
 66
1
 40
0.25
 41
0.25
  0
VERTEX
  8
1
 10
-0.125
 20
0
 42
1
  0
VERTEX
  8
1
 10
0.125
 20
0
 42
1
  0
SEQEND
  8
1
  0
ENDBLK
  8
0
  0
BLOCK
  8
0
  2
TRICONCIRCLE
 70
0
 10
0
 20
0
  0
CIRCLE
  8
1
 10
0
 20
0
 40
0.5
  0
ENDBLK
  8
0
  0
BLOCK
  8
0
  2
LCBP0
 70
0
 10
0
 20
0
  0
LINE
  8
1
 10
0
 20
-0.46875
 11
0
 21
0.46875
  0
ENDBLK
  8
0
  0
BLOCK
  8
0
  2
LCBP1
 70
0
 10
0
 20
0
  0
LINE
  8
1
 10
0
 20
-0.625
 11
0
 21
0.625
  0
ENDBLK
  8
0
  0
BLOCK
  8
0
  2
LCBP2
 70
0
 10
0
 20
0
  0
LINE
  8
1
 10
0
 20
-0.9375
 11
0
 21
0.9375
  0
ENDBLK
  8
0
  0
BLOCK
  8
0
  2
LCA1
 70
0
 10
0
 20
0
  0
SOLID
  8
1
 62
7 
 10
0
 20
0
 11
-1.4
 21
-0.275
 12
-1.4
 22
0.275
 13
-1.4
 23
0.275
  0
ENDBLK
  8
0
  0
BLOCK
  8
0
  2
LCA2
 70
0
 10
0
 20
0
  0
SOLID
  8
1
 62
7 
 10
0
 20
0
 11
-1.65
 21
-0.525
 12
-1.65
 22
0.525
 13
-1.65
 23
0.525
  0
ENDBLK
  8
0
  0
BLOCK
  8
0
  2
LCA3
 70
0
 10
0
 20
0
  0
SOLID
  8
1
 62
7 
 10
0
 20
0
 11
-2.15
 21
-1.15
 12
-2.15
 22
1.15
 13
-2.15
 23
1.15
  0
ENDBLK
  8
0
  0
BLOCK
  8
0
  2
LCA1R
 70
0
 10
0
 20
0
  0
SOLID
  8
1
 62
7 
 10
0
 20
0
 11
1.4
 21
-0.275
 12
1.4
 22
0.275
 13
1.4
 23
0.275
  0
ENDBLK
  8
0
  0
BLOCK
  8
0
  2
LCA2R
 70
0
 10
0
 20
0
  0
SOLID
  8
1
 62
7 
 10
0
 20
0
 11
1.65
 21
-0.525
 12
1.65
 22
0.525
 13
1.65
 23
0.525
  0
ENDBLK
  8
0
  0
BLOCK
  8
0
  2
LCA3R
 70
0
 10
0
 20
0
  0
SOLID
  8
1
 62
7 
 10
0
 20
0
 11
2.15
 21
-1.15
 12
2.15
 22
1.15
 13
2.15
 23
1.15
  0
ENDBLK
  8
0
  0
BLOCK
  8
0
  2
B3051_00995973
 70
0
 10
0
 20
0
  0
POLYLINE
  8
1
 66
1
  0
VERTEX
  8
1
 10
-20.1351846059163
 20
-4.5441837310791
  0
VERTEX
  8
1
 10
-4.13518460591634
 20
-4.5441837310791
  0
VERTEX
  8
1
 10
-4.13518460591634
 20
-20.5441837310791
  0
VERTEX
  8
1
 10
-20.1351846059163
 20
-20.5441837310791
  0
VERTEX
  8
1
 10
-20.1351846059163
 20
-4.5441837310791
  0
SEQEND
  8
1
  0
POLYLINE
  8
1
 66
1
  0
VERTEX
  8
1
 10
-20.1351846059163
 20
19.4558162689209
  0
VERTEX
  8
1
 10
-4.13518460591634
 20
19.4558162689209
  0
VERTEX
  8
1
 10
-4.13518460591634
 20
3.4558162689209
  0
VERTEX
  8
1
 10
-20.1351846059163
 20
3.4558162689209
  0
VERTEX
  8
1
 10
-20.1351846059163
 20
19.4558162689209
  0
SEQEND
  8
1
  0
POLYLINE
  8
1
 66
1
  0
VERTEX
  8
1
 10
-17.1351846059163
 20
-11.3441837310791
  0
VERTEX
  8
1
 10
-4.9851846059163
 20
-11.3441837310791
  0
VERTEX
  8
1
 10
-4.9851846059163
 20
-13.7441837310791
  0
VERTEX
  8
1
 10
-17.1351846059163
 20
-13.7441837310791
  0
VERTEX
  8
1
 10
-17.1351846059163
 20
-11.3441837310791
  0
SEQEND
  8
1
  0
POLYLINE
  8
1
 66
1
  0
VERTEX
  8
1
 10
-17.1351846059163
 20
12.6558162689209
  0
VERTEX
  8
1
 10
-4.9851846059163
 20
12.6558162689209
  0
VERTEX
  8
1
 10
-4.9851846059163
 20
10.2558162689209
  0
VERTEX
  8
1
 10
-17.1351846059163
 20
10.2558162689209
  0
VERTEX
  8
1
 10
-17.1351846059163
 20
12.6558162689209
  0
SEQEND
  8
1
  0
LINE
  8
1
 10
1.26481539408366
 20
-12.5441837310791
 11
12.8648153940837
 21
-12.5441837310791
  0
LINE
  8
1
 10
1.26481539408366
 20
-18.5441837310791
 11
12.8648153940837
 21
-18.5441837310791
  0
LINE
  8
1
 10
1.26481539408366
 20
-6.5441837310791
 11
12.8648153940837
 21
-6.5441837310791
  0
LINE
  8
1
 10
1.26481539408366
 20
11.4558162689209
 11
12.8648153940837
 21
11.4558162689209
  0
LINE
  8
1
 10
1.26481539408366
 20
5.4558162689209
 11
12.8648153940837
 21
5.4558162689209
  0
LINE
  8
1
 10
1.26481539408366
 20
17.4558162689209
 11
12.8648153940837
 21
17.4558162689209
  0
TEXT
  8
1
 40
1.79999985694885
 41
0.75
  1
NPN
  7
STANDARD
 73
2
 10
8.06481539408365
 20
-9.7441837310791
 11
8.06481539408365
 21
-9.7441837310791
  0
TEXT
  8
1
 40
1.79999985694885
 41
0.75
  1
PNP
  7
STANDARD
 73
2
 10
8.02500146230061
 20
-15.7441837310791
 11
8.02500146230061
 21
-15.7441837310791
  0
TEXT
  8
1
 40
1.2599998998642
 41
0.75
  1
Out/IO-Link
  7
STANDARD
 73
2
 10
-16.2230181376139
 20
-12.5441837310791
 11
-16.2230181376139
 21
-12.5441837310791
  0
TEXT
  8
1
 40
1.2599998998642
 41
0.75
  1
IN/IO-Link
  7
STANDARD
 73
2
 10
-16.2230181376139
 20
11.4558162689209
 11
-16.2230181376139
 21
11.4558162689209
  0
TEXT
  8
1
 40
1.79999985694885
 41
0.75
  1
1
  7
STANDARD
 73
2
 10
-4.13518460591634
 20
-5.22526025772095
 11
-4.13518460591634
 21
-5.22526025772095
  0
TEXT
  8
1
 40
1.79999985694885
 41
0.75
  1
4
  7
STANDARD
 73
2
 10
-4.13518460591634
 20
-11.2252602577209
 11
-4.13518460591634
 21
-11.2252602577209
  0
TEXT
  8
1
 40
1.79999985694885
 41
0.75
  1
3
  7
STANDARD
 73
2
 10
-4.13518460591634
 20
-17.2252602577209
 11
-4.13518460591634
 21
-17.2252602577209
  0
TEXT
  8
1
 40
1.79999985694885
 41
0.75
  1
BN
  7
STANDARD
 73
2
 10
0.864815394083659
 20
-5.22526025772095
 11
0.864815394083659
 21
-5.22526025772095
  0
TEXT
  8
1
 40
1.79999985694885
 41
0.75
  1
BK
  7
STANDARD
 73
2
 10
0.864815394083659
 20
-11.2252602577209
 11
0.864815394083659
 21
-11.2252602577209
  0
TEXT
  8
1
 40
1.79999985694885
 41
0.75
  1
BU
  7
STANDARD
 73
2
 10
0.864815394083659
 20
-17.2252602577209
 11
0.864815394083659
 21
-17.2252602577209
  0
TEXT
  8
1
 40
1.79999985694885
 41
0.75
  1
-
  7
STANDARD
 10
14.5178826649984
 20
-19.4441838026047
  0
TEXT
  8
1
 40
1.79999985694885
 41
0.75
  1
C/Q
  7
STANDARD
 10
14.3648153940837
 20
-13.1830717802048
  0
TEXT
  8
1
 40
1.79999985694885
 41
0.75
  1
+
  7
STANDARD
 10
14.3479065895081
 20
-7.36944406032562
  0
TEXT
  8
1
 40
1.79999985694885
 41
0.75
  1
1
  7
STANDARD
 73
2
 10
-4.13518460591634
 20
18.7747397422791
 11
-4.13518460591634
 21
18.7747397422791
  0
TEXT
  8
1
 40
1.79999985694885
 41
0.75
  1
4
  7
STANDARD
 73
2
 10
-4.13518460591634
 20
12.7747397422791
 11
-4.13518460591634
 21
12.7747397422791
  0
TEXT
  8
1
 40
1.79999985694885
 41
0.75
  1
3
  7
STANDARD
 73
2
 10
-4.13518460591634
 20
6.77473974227905
 11
-4.13518460591634
 21
6.77473974227905
  0
TEXT
  8
1
 40
1.79999985694885
 41
0.75
  1
BU
  7
STANDARD
 73
2
 10
0.864815394083659
 20
6.77473974227905
 11
0.864815394083659
 21
6.77473974227905
  0
TEXT
  8
1
 40
1.79999985694885
 41
0.75
  1
BK
  7
STANDARD
 73
2
 10
0.864815394083659
 20
12.7747397422791
 11
0.864815394083659
 21
12.7747397422791
  0
TEXT
  8
1
 40
1.79999985694885
 41
0.75
  1
BN
  7
STANDARD
 73
2
 10
0.864815394083659
 20
18.7747397422791
 11
0.864815394083659
 21
18.7747397422791
  0
TEXT
  8
1
 40
1.79999985694885
 41
0.75
  1
-
  7
STANDARD
 10
14.5178826649984
 20
4.55581619739533
  0
TEXT
  8
1
 40
1.79999985694885
 41
0.75
  1
C/Q
  7
STANDARD
 10
14.3648153940837
 20
10.8169282197952
  0
TEXT
  8
1
 40
1.79999985694885
 41
0.75
  1
+
  7
STANDARD
 10
14.3479065895081
 20
16.6305559396744
  0
LINE
  8
1
 10
-4.13518460591634
 20
-18.5441837310791
 11
-1.13518460591634
 21
-18.5441837310791
  0
LINE
  8
1
 10
-4.13518460591634
 20
-12.5441837310791
 11
-1.13518460591634
 21
-12.5441837310791
  0
LINE
  8
1
 10
-4.13518460591634
 20
-6.5441837310791
 11
-1.13518460591634
 21
-6.5441837310791
  0
LINE
  8
1
 10
0.864815394083654
 20
-12.5441837310791
 11
1.86481539408365
 21
-12.5441837310791
  0
ARC
  8
1
 10
-0.135184605916346
 20
-12.5441837310791
 40
1
 50
270
 51
90
  0
SOLID
  8
1
 10
-1.13518460591634
 20
-12.2941837310791
 11
0.364815394083659
 21
-12.2941837310791
 12
-1.13518460591634
 22
-12.7941837310791
 13
0.364815394083659
 23
-12.7941837310791
  0
SOLID
  8
1
 10
0.364815394083659
 20
-12.7941837310791
 11
-1.13518460591634
 21
-12.7941837310791
 12
-1.13518460591634
 22
-12.7941837310791
 13
-1.13518460591634
 23
-12.2941837310791
  0
LINE
  8
1
 10
0.864815394083654
 20
-6.5441837310791
 11
1.86481539408365
 21
-6.5441837310791
  0
ARC
  8
1
 10
-0.135184605916346
 20
-6.5441837310791
 40
1
 50
270
 51
90
  0
LINE
  8
1
 10
0.864815394083654
 20
-18.5441837310791
 11
1.86481539408365
 21
-18.5441837310791
  0
ARC
  8
1
 10
-0.135184605916346
 20
-18.5441837310791
 40
1
 50
270
 51
90
  0
SOLID
  8
1
 10
-1.13518460591634
 20
-18.2941837310791
 11
0.364815394083659
 21
-18.2941837310791
 12
-1.13518460591634
 22
-18.7941837310791
 13
0.364815394083659
 23
-18.7941837310791
  0
SOLID
  8
1
 10
0.364815394083659
 20
-18.7941837310791
 11
-1.13518460591634
 21
-18.7941837310791
 12
-1.13518460591634
 22
-18.7941837310791
 13
-1.13518460591634
 23
-18.2941837310791
  0
SOLID
  8
1
 10
-1.13518460591634
 20
-6.2941837310791
 11
0.364815394083659
 21
-6.2941837310791
 12
-1.13518460591634
 22
-6.7941837310791
 13
0.364815394083659
 23
-6.7941837310791
  0
SOLID
  8
1
 10
0.364815394083659
 20
-6.7941837310791
 11
-1.13518460591634
 21
-6.7941837310791
 12
-1.13518460591634
 22
-6.7941837310791
 13
-1.13518460591634
 23
-6.2941837310791
  0
LINE
  8
1
 10
-4.13518460591634
 20
5.4558162689209
 11
-1.13518460591634
 21
5.4558162689209
  0
LINE
  8
1
 10
-4.13518460591634
 20
11.4558162689209
 11
-1.13518460591634
 21
11.4558162689209
  0
LINE
  8
1
 10
-4.13518460591634
 20
17.4558162689209
 11
-1.13518460591634
 21
17.4558162689209
  0
LINE
  8
1
 10
0.864815394083654
 20
11.4558162689209
 11
1.86481539408365
 21
11.4558162689209
  0
ARC
  8
1
 10
-0.135184605916346
 20
11.4558162689209
 40
1
 50
270
 51
90
  0
SOLID
  8
1
 10
-1.13518460591634
 20
11.7058162689209
 11
0.364815394083659
 21
11.7058162689209
 12
-1.13518460591634
 22
11.2058162689209
 13
0.364815394083659
 23
11.2058162689209
  0
SOLID
  8
1
 10
0.364815394083659
 20
11.2058162689209
 11
-1.13518460591634
 21
11.2058162689209
 12
-1.13518460591634
 22
11.2058162689209
 13
-1.13518460591634
 23
11.7058162689209
  0
LINE
  8
1
 10
0.864815394083654
 20
17.4558162689209
 11
1.86481539408365
 21
17.4558162689209
  0
ARC
  8
1
 10
-0.135184605916346
 20
17.4558162689209
 40
1
 50
270
 51
90
  0
LINE
  8
1
 10
0.864815394083654
 20
5.4558162689209
 11
1.86481539408365
 21
5.4558162689209
  0
ARC
  8
1
 10
-0.135184605916346
 20
5.4558162689209
 40
1
 50
270
 51
90
  0
SOLID
  8
1
 10
-1.13518460591634
 20
5.7058162689209
 11
0.364815394083659
 21
5.7058162689209
 12
-1.13518460591634
 22
5.2058162689209
 13
0.364815394083659
 23
5.2058162689209
  0
SOLID
  8
1
 10
0.364815394083659
 20
5.2058162689209
 11
-1.13518460591634
 21
5.2058162689209
 12
-1.13518460591634
 22
5.2058162689209
 13
-1.13518460591634
 23
5.7058162689209
  0
SOLID
  8
1
 10
-1.13518460591634
 20
17.7058162689209
 11
0.364815394083659
 21
17.7058162689209
 12
-1.13518460591634
 22
17.2058162689209
 13
0.364815394083659
 23
17.2058162689209
  0
SOLID
  8
1
 10
0.364815394083659
 20
17.2058162689209
 11
-1.13518460591634
 21
17.2058162689209
 12
-1.13518460591634
 22
17.2058162689209
 13
-1.13518460591634
 23
17.7058162689209
  0
LINE
  8
1
 10
6.86481539408366
 20
-17.5441837310791
 11
6.86481539408366
 21
-18.5441837310791
  0
LINE
  8
1
 10
6.86481539408366
 20
-13.5441837310791
 11
6.86481539408366
 21
-12.5441837310791
  0
POLYLINE
  8
1
 66
1
  0
VERTEX
  8
1
 10
6.36481539408366
 20
-13.5441837310791
  0
VERTEX
  8
1
 10
7.36481539408366
 20
-13.5441837310791
  0
VERTEX
  8
1
 10
7.36481539408366
 20
-17.5441837310791
  0
VERTEX
  8
1
 10
6.36481539408366
 20
-17.5441837310791
  0
VERTEX
  8
1
 10
6.36481539408366
 20
-13.5441837310791
  0
SEQEND
  8
1
  0
LINE
  8
1
 10
6.86481539408366
 20
-11.5441837310791
 11
6.86481539408366
 21
-12.5441837310791
  0
LINE
  8
1
 10
6.86481539408366
 20
-7.5441837310791
 11
6.86481539408366
 21
-6.5441837310791
  0
POLYLINE
  8
1
 66
1
  0
VERTEX
  8
1
 10
6.36481539408366
 20
-7.5441837310791
  0
VERTEX
  8
1
 10
7.36481539408366
 20
-7.5441837310791
  0
VERTEX
  8
1
 10
7.36481539408366
 20
-11.5441837310791
  0
VERTEX
  8
1
 10
6.36481539408366
 20
-11.5441837310791
  0
VERTEX
  8
1
 10
6.36481539408366
 20
-7.5441837310791
  0
SEQEND
  8
1
  0
LINE
  8
1
 10
-17.1351846059163
 20
-7.82637364657433
 11
-17.1351846059163
 21
-6.5441837310791
  0
POLYLINE
  8
1
 66
1
  0
VERTEX
  8
1
 10
-17.1351846059163
 20
-9.5441837310791
  0
VERTEX
  8
1
 10
-18.1351846059163
 20
-7.8441837310791
  0
VERTEX
  8
1
 10
-16.1351846059163
 20
-7.8441837310791
  0
VERTEX
  8
1
 10
-17.1351846059163
 20
-9.5441837310791
  0
SEQEND
  8
1
  0
LINE
  8
1
 10
-18.1351846059163
 20
-9.5441837310791
 11
-16.1351846059163
 21
-9.5441837310791
  0
LINE
  8
1
 10
-17.1351846059163
 20
-9.5441837310791
 11
-17.1351846059163
 21
-10.5441837310791
  0
LINE
  8
1
 10
-17.1351846059163
 20
16.1736263534257
 11
-17.1351846059163
 21
17.4558162689209
  0
POLYLINE
  8
1
 66
1
  0
VERTEX
  8
1
 10
-17.1351846059163
 20
14.4558162689209
  0
VERTEX
  8
1
 10
-18.1351846059163
 20
16.1558162689209
  0
VERTEX
  8
1
 10
-16.1351846059163
 20
16.1558162689209
  0
VERTEX
  8
1
 10
-17.1351846059163
 20
14.4558162689209
  0
SEQEND
  8
1
  0
LINE
  8
1
 10
-18.1351846059163
 20
14.4558162689209
 11
-16.1351846059163
 21
14.4558162689209
  0
LINE
  8
1
 10
-17.1351846059163
 20
14.4558162689209
 11
-17.1351846059163
 21
13.4558162689209
  0
LINE
  8
1
 10
-17.6351846059163
 20
17.4558162689209
 11
-18.3422913871029
 21
18.1629230501074
  0
SOLID
  8
1
 10
-18.6351846059163
 20
18.4558162689209
 11
-17.9987885028484
 21
18.1022628783276
 12
-18.6351846059163
 22
18.4558162689209
 13
-18.2816312153231
 23
17.819420165853
  0
LINE
  8
1
 10
-18.3422913871029
 20
16.7487094877343
 11
-19.0493981682894
 21
17.4558162689209
  0
SOLID
  8
1
 10
-19.3422913871029
 20
17.7487094877343
 11
-18.705895284035
 21
17.3951560971411
 12
-19.3422913871029
 22
17.7487094877343
 13
-18.9887379965096
 23
17.1123133846665
  0
SOLID
  8
1
 10
-18.6351846059163
 20
-7.0441837310791
 11
-18.9887379965096
 21
-6.4077876280112
 12
-18.6351846059163
 22
-7.0441837310791
 13
-19.2715807089842
 23
-6.69063034048583
  0
LINE
  8
1
 10
-19.6351846059163
 20
-6.0441837310791
 11
-18.9280778247298
 21
-6.75129051226565
  0
SOLID
  8
1
 10
-17.625159413416
 20
-7.05425955125645
 11
-17.9787128040093
 21
-6.41786344818855
 12
-17.625159413416
 22
-7.05425955125645
 13
-18.2615555164839
 23
-6.70070616066318
  0
LINE
  8
1
 10
-18.625159413416
 20
-6.05425955125645
 11
-17.9180526322295
 21
-6.761366332443
  0
LINE
  8
1
 10
6.86481539408366
 20
13.4558162689209
 11
6.86481539408366
 21
11.4558162689209
  0
LINE
  8
1
 10
6.86481539408366
 20
15.4558162689209
 11
6.86481539408366
 21
17.4558162689209
  0
LINE
  8
1
 10
5.86481539408366
 20
15.9558162689209
 11
6.86481539408366
 21
13.4558162689209
  0
POLYLINE
  8
1
 70
1
 66
1
 40
0.200000000000008
 41
0.200000000000008
  0
VERTEX
  8
1
 10
6.76481539408365
 20
17.4558162689209
 42
1
  0
VERTEX
  8
1
 10
6.96481539408366
 20
17.4558162689209
 42
1
  0
SEQEND
  8
1
  0
POLYLINE
  8
1
 70
1
 66
1
 40
0.200000000000008
 41
0.200000000000008
  0
VERTEX
  8
1
 10
6.76481539408365
 20
11.4558162689209
 42
1
  0
VERTEX
  8
1
 10
6.96481539408366
 20
11.4558162689209
 42
1
  0
SEQEND
  8
1
  0
ENDBLK
  8
0
  0
ENDSEC
  0
SECTION
  2
ENTITIES
  0
INSERT
  8
1
  2
B3051_00995973
 10
20.1351846059163
 20
20.5441837310791
  0
ENDSEC
  0
EOF
