  0
SECTION
  2
HEADER
  9
$LIMMIN
 10
0
 20
0
  9
$LIMMAX
 10
52.5
 20
74.25
  9
$EXTMIN
 10
0
 20
42
  9
$EXTMAX
 10
0
 20
18.0883675813675
  0
ENDSEC
  0
SECTION
  2
TABLES
  0
TABLE
  2
LTYPE
 70
9
  0
LTYPE
  2
CONTINUOUS
 70
64
  3
Solid line
 72
65
 73
0
 40
0
  0
LTYPE
  2
DASHED
 70
64
  3
__ __ __ __ __ __ __ __ __
 72
65
 73
2
 40
0.75
 49
0.5
 49
-0.25
  0
LTYPE
  2
DOT
 70
64
  3
...........................
 72
65
 73
2
 40
0.25
 49
0
 49
-0.25
  0
LTYPE
  2
DASHDOT
 70
64
  3
__ . __ . __ . __ . __ . __ . 
 72
65
 73
4
 40
1
 49
0.5
 49
-0.25
 49
0
 49
-0.25
  0
ENDTAB
  0
TABLE
  2
LAYER
 70
10
  0
LAYER
  2
1
 70
0
 62
7
  6
CONTINUOUS
  0
LAYER
  2
CONNECTIONS
 70
0
 62
-7
  6
CONTINUOUS
  0
ENDTAB
  0
ENDSEC
  0
SECTION
  2
BLOCKS
  0
BLOCK
  8
0
  2
TRICON
 70
0
 10
0
 20
0
  0
POLYLINE
  8
1
 70
1
 66
1
 40
0.5
 41
0.5
  0
VERTEX
  8
1
 10
-0.25
 20
0
 42
1
  0
VERTEX
  8
1
 10
0.25
 20
0
 42
1
  0
SEQEND
  8
1
  0
ENDBLK
  8
0
  0
BLOCK
  8
0
  2
TRICONSMALL
 70
0
 10
0
 20
0
  0
POLYLINE
  8
1
 70
1
 66
1
 40
0.25
 41
0.25
  0
VERTEX
  8
1
 10
-0.125
 20
0
 42
1
  0
VERTEX
  8
1
 10
0.125
 20
0
 42
1
  0
SEQEND
  8
1
  0
ENDBLK
  8
0
  0
BLOCK
  8
0
  2
TRICONCIRCLE
 70
0
 10
0
 20
0
  0
CIRCLE
  8
1
 10
0
 20
0
 40
0.5
  0
ENDBLK
  8
0
  0
BLOCK
  8
0
  2
LCBP0
 70
0
 10
0
 20
0
  0
LINE
  8
1
 10
0
 20
-0.46875
 11
0
 21
0.46875
  0
ENDBLK
  8
0
  0
BLOCK
  8
0
  2
LCBP1
 70
0
 10
0
 20
0
  0
LINE
  8
1
 10
0
 20
-0.625
 11
0
 21
0.625
  0
ENDBLK
  8
0
  0
BLOCK
  8
0
  2
LCBP2
 70
0
 10
0
 20
0
  0
LINE
  8
1
 10
0
 20
-0.9375
 11
0
 21
0.9375
  0
ENDBLK
  8
0
  0
BLOCK
  8
0
  2
LCA1
 70
0
 10
0
 20
0
  0
SOLID
  8
1
 62
7 
 10
0
 20
0
 11
-1.4
 21
-0.275
 12
-1.4
 22
0.275
 13
-1.4
 23
0.275
  0
ENDBLK
  8
0
  0
BLOCK
  8
0
  2
LCA2
 70
0
 10
0
 20
0
  0
SOLID
  8
1
 62
7 
 10
0
 20
0
 11
-1.65
 21
-0.525
 12
-1.65
 22
0.525
 13
-1.65
 23
0.525
  0
ENDBLK
  8
0
  0
BLOCK
  8
0
  2
LCA3
 70
0
 10
0
 20
0
  0
SOLID
  8
1
 62
7 
 10
0
 20
0
 11
-2.15
 21
-1.15
 12
-2.15
 22
1.15
 13
-2.15
 23
1.15
  0
ENDBLK
  8
0
  0
BLOCK
  8
0
  2
LCA1R
 70
0
 10
0
 20
0
  0
SOLID
  8
1
 62
7 
 10
0
 20
0
 11
1.4
 21
-0.275
 12
1.4
 22
0.275
 13
1.4
 23
0.275
  0
ENDBLK
  8
0
  0
BLOCK
  8
0
  2
LCA2R
 70
0
 10
0
 20
0
  0
SOLID
  8
1
 62
7 
 10
0
 20
0
 11
1.65
 21
-0.525
 12
1.65
 22
0.525
 13
1.65
 23
0.525
  0
ENDBLK
  8
0
  0
BLOCK
  8
0
  2
LCA3R
 70
0
 10
0
 20
0
  0
SOLID
  8
1
 62
7 
 10
0
 20
0
 11
2.15
 21
-1.15
 12
2.15
 22
1.15
 13
2.15
 23
1.15
  0
ENDBLK
  8
0
  0
BLOCK
  8
0
  2
B3003_00995956
 70
0
 10
0
 20
0
  0
POLYLINE
  8
1
 66
1
  0
VERTEX
  8
1
 10
-21
 20
8.9558162689209
  0
VERTEX
  8
1
 10
21
 20
8.9558162689209
  0
VERTEX
  8
1
 10
21
 20
-9.0441837310791
  0
VERTEX
  8
1
 10
-21
 20
-9.0441837310791
  0
VERTEX
  8
1
 10
-21
 20
8.9558162689209
  0
SEQEND
  8
1
  0
POLYLINE
  8
1
 66
1
  0
VERTEX
  8
1
 10
-20
 20
7.9558162689209
  0
VERTEX
  8
1
 10
-4
 20
7.9558162689209
  0
VERTEX
  8
1
 10
-4
 20
-8.0441837310791
  0
VERTEX
  8
1
 10
-20
 20
-8.0441837310791
  0
VERTEX
  8
1
 10
-20
 20
7.9558162689209
  0
SEQEND
  8
1
  0
POLYLINE
  8
1
 66
1
  0
VERTEX
  8
1
 10
-17
 20
1.1558162689209
  0
VERTEX
  8
1
 10
-4.84999999999996
 20
1.1558162689209
  0
VERTEX
  8
1
 10
-4.84999999999996
 20
-1.24418373107911
  0
VERTEX
  8
1
 10
-17
 20
-1.24418373107911
  0
VERTEX
  8
1
 10
-17
 20
1.1558162689209
  0
SEQEND
  8
1
  0
LINE
  8
1
 10
1.4
 20
-0.0441837310791016
 11
13
 21
-0.0441837310791016
  0
LINE
  8
1
 10
1.4
 20
-6.0441837310791
 11
13
 21
-6.0441837310791
  0
LINE
  8
1
 10
1.4
 20
5.9558162689209
 11
13
 21
5.9558162689209
  0
TEXT
  8
1
 40
1.79999985694885
 41
0.75
  1
NPN
  7
STANDARD
 73
2
 10
8.2
 20
2.7558162689209
 11
8.2
 21
2.7558162689209
  0
TEXT
  8
1
 40
1.79999985694885
 41
0.75
  1
PNP
  7
STANDARD
 73
2
 10
8.16018606821695
 20
-3.2441837310791
 11
8.16018606821695
 21
-3.2441837310791
  0
TEXT
  8
1
 40
1.2599998998642
 41
0.75
  1
Out/IO-Link
  7
STANDARD
 73
2
 10
-16.5878335316976
 20
-0.0441837310791016
 11
-16.5878335316976
 21
-0.0441837310791016
  0
TEXT
  8
1
 40
1.79999985694885
 41
0.75
  1
1
  7
STANDARD
 73
2
 10
-4
 20
7.27473974227905
 11
-4
 21
7.27473974227905
  0
TEXT
  8
1
 40
1.79999985694885
 41
0.75
  1
4
  7
STANDARD
 73
2
 10
-4
 20
1.27473974227905
 11
-4
 21
1.27473974227905
  0
TEXT
  8
1
 40
1.79999985694885
 41
0.75
  1
3
  7
STANDARD
 73
2
 10
-4
 20
-4.72526025772095
 11
-4
 21
-4.72526025772095
  0
TEXT
  8
1
 40
1.79999985694885
 41
0.75
  1
BU
  7
STANDARD
 73
2
 10
1
 20
-4.72526025772095
 11
1
 21
-4.72526025772095
  0
TEXT
  8
1
 40
1.79999985694885
 41
0.75
  1
BK
  7
STANDARD
 73
2
 10
1
 20
1.27473974227905
 11
1
 21
1.27473974227905
  0
TEXT
  8
1
 40
1.79999985694885
 41
0.75
  1
BN
  7
STANDARD
 73
2
 10
1
 20
7.27473974227905
 11
1
 21
7.27473974227905
  0
TEXT
  8
1
 40
1.79999985694885
 41
0.75
  1
-
  7
STANDARD
 10
14.6530672709147
 20
-6.94418380260467
  0
TEXT
  8
1
 40
1.79999985694885
 41
0.75
  1
C/Q
  7
STANDARD
 10
14.5
 20
-0.683071780204773
  0
TEXT
  8
1
 40
1.79999985694885
 41
0.75
  1
+
  7
STANDARD
 10
14.4830911954244
 20
5.13055593967438
  0
LINE
  8
1
 10
-4
 20
-6.0441837310791
 11
-1
 21
-6.0441837310791
  0
LINE
  8
1
 10
-4
 20
-0.0441837310791016
 11
-1
 21
-0.0441837310791016
  0
LINE
  8
1
 10
-4
 20
5.9558162689209
 11
-1
 21
5.9558162689209
  0
LINE
  8
1
 10
0.999999999999995
 20
-0.0441837310791016
 11
2
 21
-0.0441837310791016
  0
ARC
  8
1
 10
-4.736951571734E-15
 20
-0.0441837310791016
 40
1
 50
270
 51
90
  0
SOLID
  8
1
 10
-1
 20
0.205816268920898
 11
0.5
 21
0.205816268920898
 12
-1
 22
-0.294183731079102
 13
0.5
 23
-0.294183731079102
  0
SOLID
  8
1
 10
0.5
 20
-0.294183731079102
 11
-1
 21
-0.294183731079102
 12
-1
 22
-0.294183731079102
 13
-1
 23
0.205816268920898
  0
LINE
  8
1
 10
0.999999999999995
 20
5.9558162689209
 11
2
 21
5.9558162689209
  0
ARC
  8
1
 10
-4.736951571734E-15
 20
5.9558162689209
 40
1
 50
270
 51
90
  0
LINE
  8
1
 10
0.999999999999995
 20
-6.0441837310791
 11
2
 21
-6.0441837310791
  0
ARC
  8
1
 10
-4.736951571734E-15
 20
-6.0441837310791
 40
1
 50
270
 51
90
  0
SOLID
  8
1
 10
-1
 20
-5.7941837310791
 11
0.5
 21
-5.7941837310791
 12
-1
 22
-6.2941837310791
 13
0.5
 23
-6.2941837310791
  0
SOLID
  8
1
 10
0.5
 20
-6.2941837310791
 11
-1
 21
-6.2941837310791
 12
-1
 22
-6.2941837310791
 13
-1
 23
-5.7941837310791
  0
SOLID
  8
1
 10
-1
 20
6.2058162689209
 11
0.5
 21
6.2058162689209
 12
-1
 22
5.7058162689209
 13
0.5
 23
5.7058162689209
  0
SOLID
  8
1
 10
0.5
 20
5.7058162689209
 11
-1
 21
5.7058162689209
 12
-1
 22
5.7058162689209
 13
-1
 23
6.2058162689209
  0
LINE
  8
1
 10
7
 20
-5.0441837310791
 11
7
 21
-6.0441837310791
  0
LINE
  8
1
 10
7
 20
-1.0441837310791
 11
7
 21
-0.0441837310791016
  0
POLYLINE
  8
1
 66
1
  0
VERTEX
  8
1
 10
6.5
 20
-1.0441837310791
  0
VERTEX
  8
1
 10
7.5
 20
-1.0441837310791
  0
VERTEX
  8
1
 10
7.5
 20
-5.0441837310791
  0
VERTEX
  8
1
 10
6.5
 20
-5.0441837310791
  0
VERTEX
  8
1
 10
6.5
 20
-1.0441837310791
  0
SEQEND
  8
1
  0
LINE
  8
1
 10
7
 20
0.955816268920898
 11
7
 21
-0.0441837310791016
  0
LINE
  8
1
 10
7
 20
4.9558162689209
 11
7
 21
5.9558162689209
  0
POLYLINE
  8
1
 66
1
  0
VERTEX
  8
1
 10
6.5
 20
4.9558162689209
  0
VERTEX
  8
1
 10
7.5
 20
4.9558162689209
  0
VERTEX
  8
1
 10
7.5
 20
0.955816268920898
  0
VERTEX
  8
1
 10
6.5
 20
0.955816268920898
  0
VERTEX
  8
1
 10
6.5
 20
4.9558162689209
  0
SEQEND
  8
1
  0
LINE
  8
1
 10
-17
 20
4.67362635342568
 11
-17
 21
5.9558162689209
  0
POLYLINE
  8
1
 66
1
  0
VERTEX
  8
1
 10
-17
 20
2.9558162689209
  0
VERTEX
  8
1
 10
-18
 20
4.6558162689209
  0
VERTEX
  8
1
 10
-16
 20
4.6558162689209
  0
VERTEX
  8
1
 10
-17
 20
2.9558162689209
  0
SEQEND
  8
1
  0
LINE
  8
1
 10
-18
 20
2.9558162689209
 11
-16
 21
2.9558162689209
  0
LINE
  8
1
 10
-17
 20
2.9558162689209
 11
-17
 21
1.9558162689209
  0
LINE
  8
1
 10
-18.5
 20
6.9558162689209
 11
-17.7928932188135
 21
6.24870948773436
  0
SOLID
  8
1
 10
-17.5
 20
5.9558162689209
 11
-18.1363961030679
 21
6.30936965951417
 12
-17.5
 22
5.9558162689209
 13
-17.8535533905933
 23
6.59221237198879
  0
LINE
  8
1
 10
-18.2071067811865
 20
5.24870948773435
 11
-18.9142135623731
 21
5.9558162689209
  0
SOLID
  8
1
 10
-19.2071067811865
 20
6.24870948773435
 11
-18.5707106781186
 21
5.89515609714108
 12
-19.2071067811865
 22
6.24870948773435
 13
-18.8535533905933
 23
5.61231338466646
  0
POLYLINE
  8
1
 70
1
 66
1
 40
0.200000000000008
 41
0.200000000000008
  0
VERTEX
  8
1
 10
6.9
 20
-6.04418373107909
 42
1
  0
VERTEX
  8
1
 10
7.1
 20
-6.04418373107909
 42
1
  0
SEQEND
  8
1
  0
POLYLINE
  8
1
 70
1
 66
1
 40
0.200000000000008
 41
0.200000000000008
  0
VERTEX
  8
1
 10
6.9
 20
-0.0441837310790945
 42
1
  0
VERTEX
  8
1
 10
7.1
 20
-0.0441837310790945
 42
1
  0
SEQEND
  8
1
  0
POLYLINE
  8
1
 70
1
 66
1
 40
0.200000000000008
 41
0.200000000000008
  0
VERTEX
  8
1
 10
6.9
 20
5.95581626892091
 42
1
  0
VERTEX
  8
1
 10
7.1
 20
5.95581626892091
 42
1
  0
SEQEND
  8
1
  0
ENDBLK
  8
0
  0
ENDSEC
  0
SECTION
  2
ENTITIES
  0
INSERT
  8
1
  2
B3003_00995956
 10
21
 20
9.0441837310791
  0
ENDSEC
  0
EOF
