  0
SECTION
  2
HEADER
  9
$LIMMIN
 10
0
 20
0
  9
$LIMMAX
 10
52.5
 20
74.25
  9
$EXTMIN
 10
0
 20
86
  9
$EXTMAX
 10
0
 20
94
  0
ENDSEC
  0
SECTION
  2
TABLES
  0
TABLE
  2
LTYPE
 70
9
  0
LTYPE
  2
CONTINUOUS
 70
64
  3
Solid line
 72
65
 73
0
 40
0
  0
LTYPE
  2
DASHED
 70
64
  3
__ __ __ __ __ __ __ __ __
 72
65
 73
2
 40
0.75
 49
0.5
 49
-0.25
  0
LTYPE
  2
DOT
 70
64
  3
...........................
 72
65
 73
2
 40
0.25
 49
0
 49
-0.25
  0
LTYPE
  2
DASHDOT
 70
64
  3
__ . __ . __ . __ . __ . __ . 
 72
65
 73
4
 40
1
 49
0.5
 49
-0.25
 49
0
 49
-0.25
  0
ENDTAB
  0
TABLE
  2
LAYER
 70
10
  0
LAYER
  2
1
 70
0
 62
7
  6
CONTINUOUS
  0
LAYER
  2
CONNECTIONS
 70
0
 62
-7
  6
CONTINUOUS
  0
ENDTAB
  0
ENDSEC
  0
SECTION
  2
BLOCKS
  0
BLOCK
  8
0
  2
TRICON
 70
0
 10
0
 20
0
  0
POLYLINE
  8
1
 70
1
 66
1
 40
0.5
 41
0.5
  0
VERTEX
  8
1
 10
-0.25
 20
0
 42
1
  0
VERTEX
  8
1
 10
0.25
 20
0
 42
1
  0
SEQEND
  8
1
  0
ENDBLK
  8
0
  0
BLOCK
  8
0
  2
TRICONSMALL
 70
0
 10
0
 20
0
  0
POLYLINE
  8
1
 70
1
 66
1
 40
0.25
 41
0.25
  0
VERTEX
  8
1
 10
-0.125
 20
0
 42
1
  0
VERTEX
  8
1
 10
0.125
 20
0
 42
1
  0
SEQEND
  8
1
  0
ENDBLK
  8
0
  0
BLOCK
  8
0
  2
TRICONCIRCLE
 70
0
 10
0
 20
0
  0
CIRCLE
  8
1
 10
0
 20
0
 40
0.5
  0
ENDBLK
  8
0
  0
BLOCK
  8
0
  2
LCBP0
 70
0
 10
0
 20
0
  0
LINE
  8
1
 10
0
 20
-0.46875
 11
0
 21
0.46875
  0
ENDBLK
  8
0
  0
BLOCK
  8
0
  2
LCBP1
 70
0
 10
0
 20
0
  0
LINE
  8
1
 10
0
 20
-0.625
 11
0
 21
0.625
  0
ENDBLK
  8
0
  0
BLOCK
  8
0
  2
LCBP2
 70
0
 10
0
 20
0
  0
LINE
  8
1
 10
0
 20
-0.9375
 11
0
 21
0.9375
  0
ENDBLK
  8
0
  0
BLOCK
  8
0
  2
LCA1
 70
0
 10
0
 20
0
  0
SOLID
  8
1
 62
7 
 10
0
 20
0
 11
-1.4
 21
-0.275
 12
-1.4
 22
0.275
 13
-1.4
 23
0.275
  0
ENDBLK
  8
0
  0
BLOCK
  8
0
  2
LCA2
 70
0
 10
0
 20
0
  0
SOLID
  8
1
 62
7 
 10
0
 20
0
 11
-1.65
 21
-0.525
 12
-1.65
 22
0.525
 13
-1.65
 23
0.525
  0
ENDBLK
  8
0
  0
BLOCK
  8
0
  2
LCA3
 70
0
 10
0
 20
0
  0
SOLID
  8
1
 62
7 
 10
0
 20
0
 11
-2.15
 21
-1.15
 12
-2.15
 22
1.15
 13
-2.15
 23
1.15
  0
ENDBLK
  8
0
  0
BLOCK
  8
0
  2
LCA1R
 70
0
 10
0
 20
0
  0
SOLID
  8
1
 62
7 
 10
0
 20
0
 11
1.4
 21
-0.275
 12
1.4
 22
0.275
 13
1.4
 23
0.275
  0
ENDBLK
  8
0
  0
BLOCK
  8
0
  2
LCA2R
 70
0
 10
0
 20
0
  0
SOLID
  8
1
 62
7 
 10
0
 20
0
 11
1.65
 21
-0.525
 12
1.65
 22
0.525
 13
1.65
 23
0.525
  0
ENDBLK
  8
0
  0
BLOCK
  8
0
  2
LCA3R
 70
0
 10
0
 20
0
  0
SOLID
  8
1
 62
7 
 10
0
 20
0
 11
2.15
 21
-1.15
 12
2.15
 22
1.15
 13
2.15
 23
1.15
  0
ENDBLK
  8
0
  0
BLOCK
  8
0
  2
B12751_00995924
 70
0
 10
0
 20
0
  0
POLYLINE
  8
1
 70
1
 66
1
 40
0.5
 41
0.5
  0
VERTEX
  8
1
 10
1.75
 20
-1
 42
1
  0
VERTEX
  8
1
 10
2.25
 20
-1
 42
1
  0
SEQEND
  8
1
  0
POLYLINE
  8
1
 70
1
 66
1
 40
0.5
 41
0.5
  0
VERTEX
  8
1
 10
-22.25
 20
-13
 42
1
  0
VERTEX
  8
1
 10
-21.75
 20
-13
 42
1
  0
SEQEND
  8
1
  0
POLYLINE
  8
1
 70
1
 66
1
 40
0.5
 41
0.5
  0
VERTEX
  8
1
 10
-2.25
 20
-19
 42
1
  0
VERTEX
  8
1
 10
-1.75
 20
-19
 42
1
  0
SEQEND
  8
1
  0
POLYLINE
  8
1
 70
1
 66
1
 40
0.5
 41
0.5
  0
VERTEX
  8
1
 10
1.75
 20
-39
 42
1
  0
VERTEX
  8
1
 10
2.25
 20
-39
 42
1
  0
SEQEND
  8
1
  0
POLYLINE
  8
1
 70
1
 66
1
 40
0.5
 41
0.5
  0
VERTEX
  8
1
 10
1.75
 20
24
 42
1
  0
VERTEX
  8
1
 10
2.25
 20
24
 42
1
  0
SEQEND
  8
1
  0
TEXT
  8
1
 40
2.4749997138977
 41
0.75
  1
12
  7
STANDARD
 10
27
 20
-25.7625001430511
  0
TEXT
  8
1
 40
2.4749997138977
 41
0.75
  1
14
  7
STANDARD
 10
-31
 20
-25.7625001430511
  0
TEXT
  8
1
 40
2.4749997138977
 41
0.75
  1
12/14
  7
STANDARD
 72
2
 10
-23.4471778869629
 20
-52.7625001430511
 11
-23.4471778869629
 21
-52.7625001430511
  0
TEXT
  8
1
 40
2.4749997138977
 41
0.75
  1
1
  7
STANDARD
 10
4
 20
-52.7625001430511
  0
TEXT
  8
1
 40
2.4749997138977
 41
0.75
  1
2
  7
STANDARD
 10
4
 20
45.2374998569488
  0
LINE
  8
1
 10
2
 20
43
 11
2
 21
47
  0
ARC
  8
1
 10
-12
 20
-18
 40
9
 50
70.528596800055
 51
109.471050579339
  0
ARC
  8
1
 10
-12
 20
2
 40
9
 50
250.52865870751
 51
289.47139531546
  0
ARC
  8
1
 10
2
 20
-23
 40
9
 50
70.528596800055
 51
109.471050579339
  0
ARC
  8
1
 10
2
 20
-3
 40
9
 50
250.52865870751
 51
289.47139531546
  0
LINE
  8
1
 10
-12
 20
-7
 11
-12
 21
-1
  0
LINE
  8
1
 10
-2
 20
-8
 11
-22
 21
-8
  0
POLYLINE
  8
1
 66
1
  0
VERTEX
  8
1
 10
-18
 20
-11
  0
VERTEX
  8
1
 10
-6
 20
-11
  0
VERTEX
  8
1
 10
-6
 20
-5
  0
VERTEX
  8
1
 10
-18
 20
-5
  0
VERTEX
  8
1
 10
-18
 20
-11
  0
SEQEND
  8
1
  0
LINE
  8
1
 10
2
 20
-12
 11
2
 21
-6
  0
LINE
  8
1
 10
12
 20
-13
 11
-8
 21
-13
  0
POLYLINE
  8
1
 66
1
  0
VERTEX
  8
1
 10
-4
 20
-16
  0
VERTEX
  8
1
 10
8
 20
-16
  0
VERTEX
  8
1
 10
8
 20
-10
  0
VERTEX
  8
1
 10
-4
 20
-10
  0
VERTEX
  8
1
 10
-4
 20
-16
  0
SEQEND
  8
1
  0
POLYLINE
  8
1
 66
1
  0
VERTEX
  8
1
 10
30
 20
-14
  0
VERTEX
  8
1
 10
32
 20
-13
  0
VERTEX
  8
1
 10
30
 20
-12
  0
SEQEND
  8
1
  0
POLYLINE
  8
1
 66
1
  0
VERTEX
  8
1
 10
20
 20
-9
  0
VERTEX
  8
1
 10
22
 20
-8
  0
VERTEX
  8
1
 10
20
 20
-7
  0
SEQEND
  8
1
  0
LINE
  8
1
 10
28
 20
-11
 11
28
 21
-13
  0
LINE
  8
1
 10
26
 20
-15
 11
26
 21
-13
  0
LINE
  8
1
 10
24
 20
-11
 11
24
 21
-13
  0
POLYLINE
  8
1
 66
1
  0
VERTEX
  8
1
 10
22
 20
-11
  0
VERTEX
  8
1
 10
30
 20
-11
  0
VERTEX
  8
1
 10
30
 20
-15
  0
VERTEX
  8
1
 10
22
 20
-15
  0
VERTEX
  8
1
 10
22
 20
-11
  0
SEQEND
  8
1
  0
LINE
  8
1
 10
18
 20
-6
 11
18
 21
-8
  0
LINE
  8
1
 10
16
 20
-10
 11
16
 21
-8
  0
LINE
  8
1
 10
14
 20
-6
 11
14
 21
-8
  0
POLYLINE
  8
1
 66
1
  0
VERTEX
  8
1
 10
12
 20
-6
  0
VERTEX
  8
1
 10
20
 20
-6
  0
VERTEX
  8
1
 10
20
 20
-10
  0
VERTEX
  8
1
 10
12
 20
-10
  0
VERTEX
  8
1
 10
12
 20
-6
  0
SEQEND
  8
1
  0
LINE
  8
1
 10
34.4666666666667
 20
3.53333333333333
 11
41.4666666666667
 21
6.53333333333333
  0
INSERT
  8
1
  2
LCA1
 10
41.4666666666667
 20
6.53333333333333
 50
23.1985905136482
  0
LINE
  8
1
 10
38
 20
13
 11
38
 21
-3
  0
ARC
  8
1
 10
28
 20
5
 40
9
 50
340.528596800055
 51
19.4710505793386
  0
ARC
  8
1
 10
48
 20
5
 40
9
 50
160.52865870751
 51
199.47139531546
  0
POLYLINE
  8
1
 66
1
  0
VERTEX
  8
1
 10
4
 20
7
  0
VERTEX
  8
1
 10
2
 20
9
  0
VERTEX
  8
1
 10
0
 20
7
  0
SEQEND
  8
1
  0
CIRCLE
  8
1
 10
2
 20
7.46666666666667
 40
1
  0
LINE
  8
1
 10
2
 20
6.5
 11
2
 21
3
  0
LINE
  8
1
 10
2
 20
9
 11
2
 21
12
  0
POLYLINE
  8
1
 66
1
  0
VERTEX
  8
1
 10
2
 20
1.39999999999999
  0
VERTEX
  8
1
 10
4
 20
1.81666666666668
  0
VERTEX
  8
1
 10
0
 20
2.64999999999999
  0
VERTEX
  8
1
 10
4
 20
3.48333333333332
  0
VERTEX
  8
1
 10
0
 20
4.31666666666666
  0
VERTEX
  8
1
 10
4
 20
5.14999999999999
  0
VERTEX
  8
1
 10
0
 20
5.98333333333333
  0
VERTEX
  8
1
 10
2
 20
6.39999999999999
  0
SEQEND
  8
1
  0
POLYLINE
  8
1
 66
1
  0
VERTEX
  8
1
 10
25
 20
-25
  0
VERTEX
  8
1
 10
24.5833333333333
 20
-27
  0
VERTEX
  8
1
 10
23.75
 20
-23
  0
VERTEX
  8
1
 10
22.9166666666667
 20
-27
  0
VERTEX
  8
1
 10
22.0833333333333
 20
-23
  0
VERTEX
  8
1
 10
21.25
 20
-27
  0
VERTEX
  8
1
 10
20.4166666666667
 20
-23
  0
VERTEX
  8
1
 10
20
 20
-25
  0
SEQEND
  8
1
  0
LINE
  8
1
 10
-16
 20
-23
 11
-16
 21
-27
  0
LINE
  8
1
 10
20
 20
-23
 11
20
 21
-27
  0
POLYLINE
  8
1
 66
1
  0
VERTEX
  8
1
 10
20
 20
-29
  0
VERTEX
  8
1
 10
22
 20
-29
  0
VERTEX
  8
1
 10
22
 20
-35
  0
VERTEX
  8
1
 10
20
 20
-35
  0
VERTEX
  8
1
 10
20
 20
-29
  0
SEQEND
  8
1
  0
POLYLINE
  8
1
 66
1
  0
VERTEX
  8
1
 10
-18
 20
-32
  0
VERTEX
  8
1
 10
-16
 20
-32
  0
VERTEX
  8
1
 10
-16
 20
-35
  0
VERTEX
  8
1
 10
-18
 20
-35
  0
VERTEX
  8
1
 10
-18
 20
-32
  0
SEQEND
  8
1
  0
LINE
  8
1
 10
-18.0314207650273
 20
-21.9849096258932
 11
-18.0314207650273
 21
-23.9849096258932
  0
POLYLINE
  8
1
 66
1
  0
VERTEX
  8
1
 10
-16.0314207650273
 20
-24.9849096258932
  0
VERTEX
  8
1
 10
-18.2814207650273
 20
-24.9849096258932
  0
VERTEX
  8
1
 10
-19.0314207650273
 20
-26.2839477315699
  0
VERTEX
  8
1
 10
-19.7814207650273
 20
-24.9849096258932
  0
VERTEX
  8
1
 10
-22.0314207650273
 20
-24.9849096258932
  0
SEQEND
  8
1
  0
LINE
  8
1
 10
30
 20
-27.5
 11
26
 21
-27.5
  0
LINE
  8
1
 10
30
 20
-27
 11
30
 21
-30
  0
LINE
  8
1
 10
30
 20
-29.5
 11
26
 21
-29.5
  0
LINE
  8
1
 10
26
 20
-31
 11
26
 21
-27
  0
LINE
  8
1
 10
-26
 20
-27.5
 11
-22
 21
-27.5
  0
LINE
  8
1
 10
-26
 20
-27
 11
-26
 21
-30
  0
LINE
  8
1
 10
-26
 20
-29.5
 11
-22
 21
-29.5
  0
LINE
  8
1
 10
-22
 20
-31
 11
-22
 21
-27
  0
POLYLINE
  8
1
 66
1
  0
VERTEX
  8
1
 10
26
 20
-31
  0
VERTEX
  8
1
 10
22
 20
-31
  0
VERTEX
  8
1
 10
22
 20
-35
  0
VERTEX
  8
1
 10
26
 20
-35
  0
VERTEX
  8
1
 10
26
 20
-31
  0
SEQEND
  8
1
  0
LINE
  8
1
 10
26
 20
-31
 11
22.5358983848622
 21
-33
  0
LINE
  8
1
 10
26
 20
-35
 11
22.5358983848622
 21
-33
  0
POLYLINE
  8
1
 66
1
  0
VERTEX
  8
1
 10
-22
 20
-31
  0
VERTEX
  8
1
 10
-18
 20
-31
  0
VERTEX
  8
1
 10
-18
 20
-35
  0
VERTEX
  8
1
 10
-22
 20
-35
  0
VERTEX
  8
1
 10
-22
 20
-31
  0
SEQEND
  8
1
  0
LINE
  8
1
 10
-22
 20
-31
 11
-18.5358983848622
 21
-33
  0
LINE
  8
1
 10
-22
 20
-35
 11
-18.5358983848622
 21
-33
  0
LINE
  8
1
 10
-26
 20
-35
 11
-24
 21
-31
  0
POLYLINE
  8
1
 66
1
  0
VERTEX
  8
1
 10
-28
 20
-31
  0
VERTEX
  8
1
 10
-22
 20
-31
  0
VERTEX
  8
1
 10
-22
 20
-35
  0
VERTEX
  8
1
 10
-28
 20
-35
  0
VERTEX
  8
1
 10
-28
 20
-31
  0
SEQEND
  8
1
  0
LINE
  8
1
 10
28
 20
-31
 11
30
 21
-35
  0
POLYLINE
  8
1
 66
1
  0
VERTEX
  8
1
 10
26
 20
-31
  0
VERTEX
  8
1
 10
32
 20
-31
  0
VERTEX
  8
1
 10
32
 20
-35
  0
VERTEX
  8
1
 10
26
 20
-35
  0
VERTEX
  8
1
 10
26
 20
-31
  0
SEQEND
  8
1
  0
LINE
  8
1
 10
-14
 20
-35
 11
-14
 21
-33
  0
INSERT
  8
1
  2
LCBP1
 10
-14
 20
-33
 50
90
  0
POLYLINE
  8
1
 66
1
  0
VERTEX
  8
1
 10
-16
 20
-27
  0
VERTEX
  8
1
 10
-4
 20
-27
  0
VERTEX
  8
1
 10
-4
 20
-35
  0
VERTEX
  8
1
 10
-16
 20
-35
  0
VERTEX
  8
1
 10
-16
 20
-27
  0
SEQEND
  8
1
  0
LINE
  8
1
 10
-6
 20
-27
 11
-6
 21
-35
  0
INSERT
  8
1
  2
LCA1
 10
-6
 20
-35
 50
-90
  0
LINE
  8
1
 10
-10
 20
-35
 11
-14
 21
-27
  0
INSERT
  8
1
  2
LCA1
 10
-14
 20
-27
 50
116.565051177078
  0
LINE
  8
1
 10
18
 20
-35
 11
18
 21
-33
  0
INSERT
  8
1
  2
LCBP0
 10
18
 20
-33
 50
90
  0
POLYLINE
  8
1
 66
1
  0
VERTEX
  8
1
 10
8
 20
-27
  0
VERTEX
  8
1
 10
20
 20
-27
  0
VERTEX
  8
1
 10
20
 20
-35
  0
VERTEX
  8
1
 10
8
 20
-35
  0
VERTEX
  8
1
 10
8
 20
-27
  0
SEQEND
  8
1
  0
LINE
  8
1
 10
10
 20
-27
 11
10
 21
-35
  0
INSERT
  8
1
  2
LCA1
 10
10
 20
-35
 50
-90
  0
LINE
  8
1
 10
14
 20
-35
 11
18
 21
-27
  0
INSERT
  8
1
  2
LCA1
 10
18
 20
-27
 50
63.434948822922
  0
LINE
  8
1
 10
2
 20
-31
 11
2
 21
-35
  0
POLYLINE
  8
1
 70
1
 66
1
 40
0.5
 41
0.5
  0
VERTEX
  8
1
 10
1.75
 20
-31
 42
1
  0
VERTEX
  8
1
 10
2.25
 20
-31
 42
1
  0
SEQEND
  8
1
  0
LINE
  8
1
 10
-2
 20
-31
 11
6
 21
-31
  0
LINE
  8
1
 10
6
 20
-31
 11
6
 21
-27
  0
INSERT
  8
1
  2
LCA1
 10
6
 20
-27
 50
90
  0
LINE
  8
1
 10
-2
 20
-31
 11
-2
 21
-27
  0
INSERT
  8
1
  2
LCA1
 10
-2
 20
-27
 50
90
  0
LINE
  8
1
 10
-2
 20
-35
 11
-2
 21
-33
  0
INSERT
  8
1
  2
LCBP1
 10
-2
 20
-33
 50
90
  0
LINE
  8
1
 10
6
 20
-35
 11
6
 21
-33
  0
INSERT
  8
1
  2
LCBP1
 10
6
 20
-33
 50
90
  0
POLYLINE
  8
1
 66
1
  0
VERTEX
  8
1
 10
-4
 20
-27
  0
VERTEX
  8
1
 10
8
 20
-27
  0
VERTEX
  8
1
 10
8
 20
-35
  0
VERTEX
  8
1
 10
-4
 20
-35
  0
VERTEX
  8
1
 10
-4
 20
-27
  0
SEQEND
  8
1
  0
LINE
  8
1
 10
2
 20
43
 11
2
 21
24
  0
LINE
  8
1
 10
2
 20
12
 11
2
 21
24
  0
POLYLINE
  8
1
  6
DASHDOT
 66
1
  0
VERTEX
  8
1
 10
-43
 20
43
  0
VERTEX
  8
1
 10
43
 20
43
  0
VERTEX
  8
1
 10
43
 20
-47
  0
VERTEX
  8
1
 10
-43
 20
-47
  0
VERTEX
  8
1
 10
-43
 20
43
  0
SEQEND
  8
1
  0
LINE
  8
1
 10
38
 20
-43
 11
38
 21
-3
  0
LINE
  8
1
 10
38
 20
24
 11
38
 21
13
  0
LINE
  8
1
 10
2
 20
24
 11
38
 21
24
  0
LINE
  8
1
 10
3
 20
24
 11
-14
 21
24
  0
LINE
  8
1
 10
2
 20
3
 11
2
 21
-6
  0
LINE
  8
1
 10
-12
 20
-1
 11
2
 21
-1
  0
LINE
  8
1
 10
-22
 20
-8
 11
-22
 21
-13
  0
LINE
  8
1
 10
-2
 20
-8
 11
12
 21
-8
  0
LINE
  8
1
 10
12
 20
-13
 11
22
 21
-13
  0
LINE
  8
1
 10
-40
 20
-43
 11
-40
 21
-13
  0
LINE
  8
1
 10
-8
 20
-13
 11
-40
 21
-13
  0
LINE
  8
1
 10
-22
 20
-35
 11
-22
 21
-47
  0
LINE
  8
1
 10
6
 20
-43
 11
38
 21
-43
  0
LINE
  8
1
 10
-2
 20
-43
 11
-40
 21
-43
  0
LINE
  8
1
 10
-36
 20
-39
 11
2
 21
-39
  0
LINE
  8
1
 10
-36
 20
-19
 11
-36
 21
-39
  0
LINE
  8
1
 10
-2
 20
-27
 11
-2
 21
-19
  0
LINE
  8
1
 10
6
 20
-27
 11
6
 21
-19
  0
LINE
  8
1
 10
6
 20
-19
 11
-36
 21
-19
  0
LINE
  8
1
 10
-2
 20
-35
 11
-2
 21
-43
  0
LINE
  8
1
 10
6
 20
-35
 11
6
 21
-43
  0
LINE
  8
1
 10
2
 20
-35
 11
2
 21
-47
  0
LINE
  8
1
 10
-25.5
 20
19.5
 11
-27.5
 21
28.5
  0
INSERT
  8
1
  2
LCA1
 10
-27.5
 20
28.5
 50
102.528807709152
  0
LINE
  8
1
 10
-14
 20
24
 11
-18
 21
24
  0
POLYLINE
  8
1
 66
1
  0
VERTEX
  8
1
 10
-29
 20
24
  0
VERTEX
  8
1
 10
-28.5833333333333
 20
22
  0
VERTEX
  8
1
 10
-27.75
 20
26
  0
VERTEX
  8
1
 10
-26.9166666666667
 20
22
  0
VERTEX
  8
1
 10
-26.0833333333333
 20
26
  0
VERTEX
  8
1
 10
-25.25
 20
22
  0
VERTEX
  8
1
 10
-24.4166666666667
 20
26
  0
VERTEX
  8
1
 10
-24
 20
24
  0
SEQEND
  8
1
  0
LINE
  8
1
 10
-21.85
 20
23.7
 11
-22.85
 21
23.7
  0
POLYLINE
  8
1
 66
1
  0
VERTEX
  8
1
 10
-19.15
 20
23.7
  0
VERTEX
  8
1
 10
-20.15
 20
23.7
  0
VERTEX
  8
1
 10
-22.65
 20
24.7
  0
SEQEND
  8
1
  0
POLYLINE
  8
1
 66
1
  0
VERTEX
  8
1
 10
-24
 20
27
  0
VERTEX
  8
1
 10
-18
 20
27
  0
VERTEX
  8
1
 10
-18
 20
21
  0
VERTEX
  8
1
 10
-24
 20
21
  0
VERTEX
  8
1
 10
-24
 20
27
  0
SEQEND
  8
1
  0
CIRCLE
  8
CONNECTIONS
 10
2
 20
-47
 40
0
  0
CIRCLE
  8
CONNECTIONS
 10
-22
 20
-47
 40
0
  0
CIRCLE
  8
CONNECTIONS
 10
2
 20
47
 40
0
  0
CIRCLE
  8
CONNECTIONS
 10
26
 20
-33
 40
0
  0
CIRCLE
  8
CONNECTIONS
 10
22
 20
-33
 40
0
  0
CIRCLE
  8
CONNECTIONS
 10
-22
 20
-33
 40
0
  0
CIRCLE
  8
CONNECTIONS
 10
-18
 20
-33
 40
0
  0
CIRCLE
  8
CONNECTIONS
 10
-22
 20
-33
 40
0
  0
CIRCLE
  8
CONNECTIONS
 10
26
 20
-33
 40
0
  0
ENDBLK
  8
0
  0
ENDSEC
  0
SECTION
  2
ENTITIES
  0
INSERT
  8
1
  2
B12751_00995924
 10
43
 20
47
  0
ENDSEC
  0
EOF
