  0
SECTION
  2
HEADER
  9
$LIMMIN
 10
0
 20
0
  9
$LIMMAX
 10
52.5
 20
74.25
  9
$EXTMIN
 10
0
 20
200
  9
$EXTMAX
 10
0
 20
212
  0
ENDSEC
  0
SECTION
  2
TABLES
  0
TABLE
  2
LTYPE
 70
9
  0
LTYPE
  2
CONTINUOUS
 70
64
  3
Solid line
 72
65
 73
0
 40
0
  0
LTYPE
  2
DASHED
 70
64
  3
__ __ __ __ __ __ __ __ __
 72
65
 73
2
 40
0.75
 49
0.5
 49
-0.25
  0
LTYPE
  2
DOT
 70
64
  3
...........................
 72
65
 73
2
 40
0.25
 49
0
 49
-0.25
  0
LTYPE
  2
DASHDOT
 70
64
  3
__ . __ . __ . __ . __ . __ . 
 72
65
 73
4
 40
1
 49
0.5
 49
-0.25
 49
0
 49
-0.25
  0
ENDTAB
  0
TABLE
  2
LAYER
 70
10
  0
LAYER
  2
1
 70
0
 62
7
  6
CONTINUOUS
  0
LAYER
  2
CONNECTIONS
 70
0
 62
-7
  6
CONTINUOUS
  0
ENDTAB
  0
ENDSEC
  0
SECTION
  2
BLOCKS
  0
BLOCK
  8
0
  2
TRICON
 70
0
 10
0
 20
0
  0
POLYLINE
  8
1
 70
1
 66
1
 40
0.5
 41
0.5
  0
VERTEX
  8
1
 10
-0.25
 20
0
 42
1
  0
VERTEX
  8
1
 10
0.25
 20
0
 42
1
  0
SEQEND
  8
1
  0
ENDBLK
  8
0
  0
BLOCK
  8
0
  2
TRICONSMALL
 70
0
 10
0
 20
0
  0
POLYLINE
  8
1
 70
1
 66
1
 40
0.25
 41
0.25
  0
VERTEX
  8
1
 10
-0.125
 20
0
 42
1
  0
VERTEX
  8
1
 10
0.125
 20
0
 42
1
  0
SEQEND
  8
1
  0
ENDBLK
  8
0
  0
BLOCK
  8
0
  2
TRICONCIRCLE
 70
0
 10
0
 20
0
  0
CIRCLE
  8
1
 10
0
 20
0
 40
0.5
  0
ENDBLK
  8
0
  0
BLOCK
  8
0
  2
LCBP0
 70
0
 10
0
 20
0
  0
LINE
  8
1
 10
0
 20
-0.46875
 11
0
 21
0.46875
  0
ENDBLK
  8
0
  0
BLOCK
  8
0
  2
LCBP1
 70
0
 10
0
 20
0
  0
LINE
  8
1
 10
0
 20
-0.625
 11
0
 21
0.625
  0
ENDBLK
  8
0
  0
BLOCK
  8
0
  2
LCBP2
 70
0
 10
0
 20
0
  0
LINE
  8
1
 10
0
 20
-0.9375
 11
0
 21
0.9375
  0
ENDBLK
  8
0
  0
BLOCK
  8
0
  2
LCA1
 70
0
 10
0
 20
0
  0
SOLID
  8
1
 62
7 
 10
0
 20
0
 11
-1.4
 21
-0.275
 12
-1.4
 22
0.275
 13
-1.4
 23
0.275
  0
ENDBLK
  8
0
  0
BLOCK
  8
0
  2
LCA2
 70
0
 10
0
 20
0
  0
SOLID
  8
1
 62
7 
 10
0
 20
0
 11
-1.65
 21
-0.525
 12
-1.65
 22
0.525
 13
-1.65
 23
0.525
  0
ENDBLK
  8
0
  0
BLOCK
  8
0
  2
LCA3
 70
0
 10
0
 20
0
  0
SOLID
  8
1
 62
7 
 10
0
 20
0
 11
-2.15
 21
-1.15
 12
-2.15
 22
1.15
 13
-2.15
 23
1.15
  0
ENDBLK
  8
0
  0
BLOCK
  8
0
  2
LCA1R
 70
0
 10
0
 20
0
  0
SOLID
  8
1
 62
7 
 10
0
 20
0
 11
1.4
 21
-0.275
 12
1.4
 22
0.275
 13
1.4
 23
0.275
  0
ENDBLK
  8
0
  0
BLOCK
  8
0
  2
LCA2R
 70
0
 10
0
 20
0
  0
SOLID
  8
1
 62
7 
 10
0
 20
0
 11
1.65
 21
-0.525
 12
1.65
 22
0.525
 13
1.65
 23
0.525
  0
ENDBLK
  8
0
  0
BLOCK
  8
0
  2
LCA3R
 70
0
 10
0
 20
0
  0
SOLID
  8
1
 62
7 
 10
0
 20
0
 11
2.15
 21
-1.15
 12
2.15
 22
1.15
 13
2.15
 23
1.15
  0
ENDBLK
  8
0
  0
BLOCK
  8
0
  2
B3293_00995912
 70
0
 10
0
 20
0
  0
POLYLINE
  8
1
 66
1
  0
VERTEX
  8
1
 10
-100
 20
106
  0
VERTEX
  8
1
 10
100
 20
106
  0
VERTEX
  8
1
 10
100
 20
-106
  0
VERTEX
  8
1
 10
-100
 20
-106
  0
VERTEX
  8
1
 10
-100
 20
106
  0
SEQEND
  8
1
  0
CIRCLE
  8
1
 10
6
 20
24
 40
4
  0
CIRCLE
  8
1
 10
-6
 20
24
 40
4
  0
CIRCLE
  8
1
 10
-12
 20
34
 40
4
  0
CIRCLE
  8
1
 10
-6
 20
44
 40
4
  0
CIRCLE
  8
1
 10
6
 20
44
 40
4
  0
CIRCLE
  8
1
 10
12
 20
34
 40
4
  0
CIRCLE
  8
1
 10
48
 20
-20
 40
10
  0
CIRCLE
  8
1
 10
-34
 20
32
 40
4
  0
CIRCLE
  8
1
 10
-48
 20
14
 40
4
  0
CIRCLE
  8
1
 10
48
 20
14
 40
4
  0
CIRCLE
  8
1
 10
34
 20
32
 40
4
  0
CIRCLE
  8
1
 10
-48
 20
-20
 40
10
  0
CIRCLE
  8
1
 10
0
 20
-6.00000000000002
 40
10
  0
CIRCLE
  8
1
 10
-20
 20
-52
 40
10
  0
CIRCLE
  8
1
 10
20
 20
-52
 40
10
  0
CIRCLE
  8
1
 10
0
 20
-6
 40
70
  0
LINE
  8
1
 10
-27.6076767648858
 20
-6
 11
-16
 21
-26
  0
CIRCLE
  8
1
 10
0
 20
34
 40
20
  0
LINE
  8
1
 10
38
 20
0
 11
70
 21
-4
  0
ARC
  8
1
 10
38
 20
-12
 40
12
 50
90
 51
149.9999738637
  0
LINE
  8
1
 10
16
 20
-26
 11
27.6077061025257
 21
-6
  0
ARC
  8
1
 10
-38
 20
-12
 40
12
 50
29.9855865499188
 51
90
  0
ARC
  8
1
 10
0
 20
-14
 40
20
 50
216.869897645844
 51
323.130102354156
  0
LINE
  8
1
 10
-70
 20
-4
 11
-38
 21
0
  0
TEXT
  8
1
 40
7.2
 41
0.75
  1
2
  7
STANDARD
 73
2
 10
62.4018910725911
 20
38.3722325960795
 11
62.4018910725911
 21
38.3722325960795
  0
TEXT
  8
1
 40
7.2
 41
0.75
  1
8
  7
STANDARD
 73
2
 10
41.2885042826335
 20
64
 11
41.2885042826335
 21
64
  0
TEXT
  8
1
 40
7.2
 41
0.75
  1
7
  7
STANDARD
 73
2
 10
22
 20
80.0984172821045
 11
22
 21
80.0984172821045
  0
TEXT
  8
1
 40
7.2
 41
0.75
  1
6
  7
STANDARD
 73
2
 10
8
 20
96.0984172821045
 11
8
 21
96.0984172821045
  0
TEXT
  8
1
 40
7.2
 41
0.75
  1
5
  7
STANDARD
 72
2
 73
2
 10
-8.57700856526693
 20
96.0995031992594
 11
-8.57700856526693
 21
96.0995031992594
  0
TEXT
  8
1
 40
7.2
 41
0.75
  1
10
  7
STANDARD
 72
2
 73
2
 10
-22.5770085652669
 20
80.0995031992594
 11
-22.5770085652669
 21
80.0995031992594
  0
TEXT
  8
1
 40
7.2
 41
0.75
  1
9
  7
STANDARD
 72
2
 73
2
 10
-40.5770085652669
 20
64.0995031992594
 11
-40.5770085652669
 21
64.0995031992594
  0
TEXT
  8
1
 40
7.2
 41
0.75
  1
3
  7
STANDARD
 72
2
 73
2
 10
-58.9390958150228
 20
41.0984172821045
 11
-58.9390958150228
 21
41.0984172821045
  0
TEXT
  8
1
 40
7.2
 41
0.75
  1
4
  7
STANDARD
 72
2
 73
2
 10
-72.9404385884603
 20
13.0984172821045
 11
-72.9404385884603
 21
13.0984172821045
  0
TEXT
  8
1
 40
7.2
 41
0.75
  1
A
  7
STANDARD
 72
2
 73
2
 10
-76.5385475158691
 20
-29.628310362498
 11
-76.5385475158691
 21
-29.628310362498
  0
TEXT
  8
1
 40
7.2
 41
0.75
  1
B
  7
STANDARD
 72
2
 73
2
 10
-39.4708906809489
 20
-77.0995031992594
 11
-39.4708906809489
 21
-77.0995031992594
  0
TEXT
  8
1
 40
7.2
 41
0.75
  1
PE
  7
STANDARD
 72
1
 73
2
 10
0
 20
-96.0005429585775
 11
0
 21
-96.0005429585775
  0
TEXT
  8
1
 40
7.2
 41
0.75
  1
C
  7
STANDARD
 73
2
 10
37.4695479075114
 20
-79.0005429585775
 11
37.4695479075114
 21
-79.0005429585775
  0
TEXT
  8
1
 40
7.2
 41
0.75
  1
D
  7
STANDARD
 73
2
 10
70.4018910725911
 20
-29.628310362498
 11
70.4018910725911
 21
-29.628310362498
  0
TEXT
  8
1
 40
7.2
 41
0.75
  1
1
  7
STANDARD
 73
2
 10
76
 20
13.0984172821045
 11
76
 21
13.0984172821045
  0
LINE
  8
1
 10
12
 20
40
 11
18
 21
80
  0
LINE
  8
1
 10
18
 20
80
 11
22
 21
80
  0
LINE
  8
1
 10
-12
 20
40
 11
-18
 21
80
  0
LINE
  8
1
 10
-18
 20
80
 11
-22
 21
80
  0
LINE
  8
1
 10
-36
 20
64
 11
-40
 21
64
  0
LINE
  8
1
 10
-12
 20
24
 11
-36
 21
64
  0
LINE
  8
1
 10
36
 20
64
 11
40
 21
64
  0
LINE
  8
1
 10
12
 20
24
 11
36
 21
64
  0
LINE
  8
1
 10
-4
 20
96
 11
-8
 21
96
  0
LINE
  8
1
 10
-4
 20
50
 11
-4
 21
96
  0
LINE
  8
1
 10
4
 20
96
 11
8
 21
96
  0
LINE
  8
1
 10
4
 20
50
 11
4
 21
96
  0
LINE
  8
1
 10
0
 20
-22
 11
0
 21
-86
  0
ENDBLK
  8
0
  0
ENDSEC
  0
SECTION
  2
ENTITIES
  0
INSERT
  8
1
  2
B3293_00995912
 10
100
 20
106
  0
ENDSEC
  0
EOF
