  0
SECTION
  2
HEADER
  9
$LIMMIN
 10
0
 20
0
  9
$LIMMAX
 10
52.5
 20
74.25
  9
$EXTMIN
 10
0
 20
28.6836639086405
  9
$EXTMAX
 10
0
 20
16
  0
ENDSEC
  0
SECTION
  2
TABLES
  0
TABLE
  2
LTYPE
 70
9
  0
LTYPE
  2
CONTINUOUS
 70
64
  3
Solid line
 72
65
 73
0
 40
0
  0
LTYPE
  2
DASHED
 70
64
  3
__ __ __ __ __ __ __ __ __
 72
65
 73
2
 40
0.75
 49
0.5
 49
-0.25
  0
LTYPE
  2
DOT
 70
64
  3
...........................
 72
65
 73
2
 40
0.25
 49
0
 49
-0.25
  0
LTYPE
  2
DASHDOT
 70
64
  3
__ . __ . __ . __ . __ . __ . 
 72
65
 73
4
 40
1
 49
0.5
 49
-0.25
 49
0
 49
-0.25
  0
ENDTAB
  0
TABLE
  2
LAYER
 70
10
  0
LAYER
  2
1
 70
0
 62
7
  6
CONTINUOUS
  0
LAYER
  2
CONNECTIONS
 70
0
 62
-7
  6
CONTINUOUS
  0
ENDTAB
  0
ENDSEC
  0
SECTION
  2
BLOCKS
  0
BLOCK
  8
0
  2
TRICON
 70
0
 10
0
 20
0
  0
POLYLINE
  8
1
 70
1
 66
1
 40
0.5
 41
0.5
  0
VERTEX
  8
1
 10
-0.25
 20
0
 42
1
  0
VERTEX
  8
1
 10
0.25
 20
0
 42
1
  0
SEQEND
  8
1
  0
ENDBLK
  8
0
  0
BLOCK
  8
0
  2
TRICONSMALL
 70
0
 10
0
 20
0
  0
POLYLINE
  8
1
 70
1
 66
1
 40
0.25
 41
0.25
  0
VERTEX
  8
1
 10
-0.125
 20
0
 42
1
  0
VERTEX
  8
1
 10
0.125
 20
0
 42
1
  0
SEQEND
  8
1
  0
ENDBLK
  8
0
  0
BLOCK
  8
0
  2
TRICONCIRCLE
 70
0
 10
0
 20
0
  0
CIRCLE
  8
1
 10
0
 20
0
 40
0.5
  0
ENDBLK
  8
0
  0
BLOCK
  8
0
  2
LCBP0
 70
0
 10
0
 20
0
  0
LINE
  8
1
 10
0
 20
-0.46875
 11
0
 21
0.46875
  0
ENDBLK
  8
0
  0
BLOCK
  8
0
  2
LCBP1
 70
0
 10
0
 20
0
  0
LINE
  8
1
 10
0
 20
-0.625
 11
0
 21
0.625
  0
ENDBLK
  8
0
  0
BLOCK
  8
0
  2
LCBP2
 70
0
 10
0
 20
0
  0
LINE
  8
1
 10
0
 20
-0.9375
 11
0
 21
0.9375
  0
ENDBLK
  8
0
  0
BLOCK
  8
0
  2
LCA1
 70
0
 10
0
 20
0
  0
SOLID
  8
1
 62
7 
 10
0
 20
0
 11
-1.4
 21
-0.275
 12
-1.4
 22
0.275
 13
-1.4
 23
0.275
  0
ENDBLK
  8
0
  0
BLOCK
  8
0
  2
LCA2
 70
0
 10
0
 20
0
  0
SOLID
  8
1
 62
7 
 10
0
 20
0
 11
-1.65
 21
-0.525
 12
-1.65
 22
0.525
 13
-1.65
 23
0.525
  0
ENDBLK
  8
0
  0
BLOCK
  8
0
  2
LCA3
 70
0
 10
0
 20
0
  0
SOLID
  8
1
 62
7 
 10
0
 20
0
 11
-2.15
 21
-1.15
 12
-2.15
 22
1.15
 13
-2.15
 23
1.15
  0
ENDBLK
  8
0
  0
BLOCK
  8
0
  2
LCA1R
 70
0
 10
0
 20
0
  0
SOLID
  8
1
 62
7 
 10
0
 20
0
 11
1.4
 21
-0.275
 12
1.4
 22
0.275
 13
1.4
 23
0.275
  0
ENDBLK
  8
0
  0
BLOCK
  8
0
  2
LCA2R
 70
0
 10
0
 20
0
  0
SOLID
  8
1
 62
7 
 10
0
 20
0
 11
1.65
 21
-0.525
 12
1.65
 22
0.525
 13
1.65
 23
0.525
  0
ENDBLK
  8
0
  0
BLOCK
  8
0
  2
LCA3R
 70
0
 10
0
 20
0
  0
SOLID
  8
1
 62
7 
 10
0
 20
0
 11
2.15
 21
-1.15
 12
2.15
 22
1.15
 13
2.15
 23
1.15
  0
ENDBLK
  8
0
  0
BLOCK
  8
0
  2
B74670_00995892
 70
0
 10
0
 20
0
  0
TEXT
  8
1
 40
2.475
 41
0.75
  1
12
  7
STANDARD
 72
2
 10
-8.69348163604736
 20
2.96526740392049
 11
-8.69348163604736
 21
2.96526740392049
  0
TEXT
  8
1
 40
2.475
 41
0.75
  1
3
  7
STANDARD
 73
3
 10
7.47661037445068
 20
-4.87428417205811
 11
7.47661037445068
 21
-4.87428417205811
  0
TEXT
  8
1
 40
2.475
 41
0.75
  1
1
  7
STANDARD
 72
2
 73
3
 10
3.20705369313558
 20
-4.87428417205811
 11
3.20705369313558
 21
-4.87428417205811
  0
LINE
  8
1
 10
3.34183203379313
 20
-4
 11
3.34183203379313
 21
-8
  0
LINE
  8
1
 10
3.34183203379313
 20
8
 11
3.34183203379313
 21
4
  0
LINE
  8
1
 10
7.34183203379313
 20
-4
 11
7.34183203379313
 21
-8
  0
TEXT
  8
1
 40
2.475
 41
0.75
  1
2
  7
STANDARD
 72
2
 10
3.20705369313558
 20
5.23750000000001
 11
3.20705369313558
 21
5.23750000000001
  0
POLYLINE
  8
1
 66
1
  0
VERTEX
  8
1
 10
14.3418320337931
 20
-2
  0
VERTEX
  8
1
 10
13.9251653671265
 20
-4
  0
VERTEX
  8
1
 10
13.0918320337931
 20
0
  0
VERTEX
  8
1
 10
12.2584987004598
 20
-4
  0
VERTEX
  8
1
 10
11.4251653671265
 20
0
  0
VERTEX
  8
1
 10
10.5918320337931
 20
-4
  0
VERTEX
  8
1
 10
9.75849870045978
 20
0
  0
VERTEX
  8
1
 10
9.34183203379313
 20
-2
  0
SEQEND
  8
1
  0
LINE
  8
1
 10
-7.40816796620687
 20
-1
 11
-6.65816796620687
 21
-1
  0
LINE
  8
1
 10
-11.9081679662069
 20
-1
 11
-12.6581679662069
 21
-1
  0
LINE
  8
1
 10
-8.65816796620687
 20
0
 11
-8.65816796620687
 21
2
  0
POLYLINE
  8
1
 66
1
  0
VERTEX
  8
1
 10
-9.90816796620687
 20
-1
  0
VERTEX
  8
1
 10
-9.40816796620687
 20
-1
  0
VERTEX
  8
1
 10
-8.65816796620687
 20
-2.29903810567666
  0
VERTEX
  8
1
 10
-7.90816796620687
 20
-1
  0
VERTEX
  8
1
 10
-7.40816796620687
 20
-1
  0
SEQEND
  8
1
  0
POLYLINE
  8
1
 66
1
  0
VERTEX
  8
1
 10
-11.9081679662069
 20
-1
  0
VERTEX
  8
1
 10
-11.4081679662069
 20
-1
  0
VERTEX
  8
1
 10
-10.6581679662069
 20
-2.29903810567666
  0
VERTEX
  8
1
 10
-9.90816796620687
 20
-1
  0
VERTEX
  8
1
 10
-9.40816796620687
 20
-1
  0
SEQEND
  8
1
  0
POLYLINE
  8
1
 66
1
  0
VERTEX
  8
1
 10
-14.1581679662069
 20
0
  0
VERTEX
  8
1
 10
-12.6581679662069
 20
0
  0
VERTEX
  8
1
 10
-12.6581679662069
 20
-4
  0
VERTEX
  8
1
 10
-11.1581679662069
 20
-4
  0
SEQEND
  8
1
  0
LINE
  8
1
 10
-6.65816796620687
 20
-3
 11
-12.6581679662069
 21
-3
  0
LINE
  8
1
 10
3.34183203379313
 20
-4
 11
3.34183203379313
 21
-2
  0
INSERT
  8
1
  2
LCBP1
 10
3.34183203379313
 20
-2
 50
90
  0
POLYLINE
  8
1
 66
1
  0
VERTEX
  8
1
 10
1.34183203379313
 20
4
  0
VERTEX
  8
1
 10
9.34183203379313
 20
4
  0
VERTEX
  8
1
 10
9.34183203379313
 20
-4
  0
VERTEX
  8
1
 10
1.34183203379313
 20
-4
  0
VERTEX
  8
1
 10
1.34183203379313
 20
4
  0
SEQEND
  8
1
  0
LINE
  8
1
 10
3.34183203379313
 20
4
 11
7.34183203379313
 21
-4
  0
INSERT
  8
1
  2
LCA1
 10
7.34183203379313
 20
-4
 50
-63.434948822922
  0
INSERT
  8
1
  2
LCA1R
 10
3.34183203379313
 20
4
 50
-63.434948822922
  0
LINE
  8
1
 10
-0.658167966206869
 20
-4
 11
-0.658167966206869
 21
-2
  0
INSERT
  8
1
  2
LCBP1
 10
-0.658167966206869
 20
-2
 50
90
  0
POLYLINE
  8
1
 66
1
  0
VERTEX
  8
1
 10
-6.65816796620687
 20
4
  0
VERTEX
  8
1
 10
1.34183203379313
 20
4
  0
VERTEX
  8
1
 10
1.34183203379313
 20
-4
  0
VERTEX
  8
1
 10
-6.65816796620687
 20
-4
  0
VERTEX
  8
1
 10
-6.65816796620687
 20
4
  0
SEQEND
  8
1
  0
LINE
  8
1
 10
-4.65816796620687
 20
-4
 11
-4.65816796620687
 21
4
  0
INSERT
  8
1
  2
LCA1
 10
-4.65816796620687
 20
4
 50
90
  0
INSERT
  8
1
  2
LCA1R
 10
-4.65816796620687
 20
-4
 50
90
  0
CIRCLE
  8
CONNECTIONS
 10
3.34183203379313
 20
8
 40
0
  0
CIRCLE
  8
CONNECTIONS
 10
3.34183203379313
 20
-8
 40
0
  0
CIRCLE
  8
CONNECTIONS
 10
7.34183203379313
 20
-8
 40
0
  0
CIRCLE
  8
CONNECTIONS
 10
-6.65816796620687
 20
-2
 40
0
  0
ENDBLK
  8
0
  0
ENDSEC
  0
SECTION
  2
ENTITIES
  0
INSERT
  8
1
  2
B74670_00995892
 10
14.3418320337931
 20
8
  0
ENDSEC
  0
EOF
