  0
SECTION
  2
HEADER
  9
$LIMMIN
 10
0
 20
0
  9
$LIMMAX
 10
52.5
 20
74.25
  9
$EXTMIN
 10
0
 20
83.1057513237
  9
$EXTMAX
 10
0
 20
29.3722326755524
  0
ENDSEC
  0
SECTION
  2
TABLES
  0
TABLE
  2
LTYPE
 70
9
  0
LTYPE
  2
CONTINUOUS
 70
64
  3
Solid line
 72
65
 73
0
 40
0
  0
LTYPE
  2
DASHED
 70
64
  3
__ __ __ __ __ __ __ __ __
 72
65
 73
2
 40
0.75
 49
0.5
 49
-0.25
  0
LTYPE
  2
DOT
 70
64
  3
...........................
 72
65
 73
2
 40
0.25
 49
0
 49
-0.25
  0
LTYPE
  2
DASHDOT
 70
64
  3
__ . __ . __ . __ . __ . __ . 
 72
65
 73
4
 40
1
 49
0.5
 49
-0.25
 49
0
 49
-0.25
  0
ENDTAB
  0
TABLE
  2
LAYER
 70
10
  0
LAYER
  2
1
 70
0
 62
7
  6
CONTINUOUS
  0
LAYER
  2
CONNECTIONS
 70
0
 62
-7
  6
CONTINUOUS
  0
ENDTAB
  0
ENDSEC
  0
SECTION
  2
BLOCKS
  0
BLOCK
  8
0
  2
TRICON
 70
0
 10
0
 20
0
  0
POLYLINE
  8
1
 70
1
 66
1
 40
0.5
 41
0.5
  0
VERTEX
  8
1
 10
-0.25
 20
0
 42
1
  0
VERTEX
  8
1
 10
0.25
 20
0
 42
1
  0
SEQEND
  8
1
  0
ENDBLK
  8
0
  0
BLOCK
  8
0
  2
TRICONSMALL
 70
0
 10
0
 20
0
  0
POLYLINE
  8
1
 70
1
 66
1
 40
0.25
 41
0.25
  0
VERTEX
  8
1
 10
-0.125
 20
0
 42
1
  0
VERTEX
  8
1
 10
0.125
 20
0
 42
1
  0
SEQEND
  8
1
  0
ENDBLK
  8
0
  0
BLOCK
  8
0
  2
TRICONCIRCLE
 70
0
 10
0
 20
0
  0
CIRCLE
  8
1
 10
0
 20
0
 40
0.5
  0
ENDBLK
  8
0
  0
BLOCK
  8
0
  2
LCBP0
 70
0
 10
0
 20
0
  0
LINE
  8
1
 10
0
 20
-0.46875
 11
0
 21
0.46875
  0
ENDBLK
  8
0
  0
BLOCK
  8
0
  2
LCBP1
 70
0
 10
0
 20
0
  0
LINE
  8
1
 10
0
 20
-0.625
 11
0
 21
0.625
  0
ENDBLK
  8
0
  0
BLOCK
  8
0
  2
LCBP2
 70
0
 10
0
 20
0
  0
LINE
  8
1
 10
0
 20
-0.9375
 11
0
 21
0.9375
  0
ENDBLK
  8
0
  0
BLOCK
  8
0
  2
LCA1
 70
0
 10
0
 20
0
  0
SOLID
  8
1
 62
7 
 10
0
 20
0
 11
-1.4
 21
-0.275
 12
-1.4
 22
0.275
 13
-1.4
 23
0.275
  0
ENDBLK
  8
0
  0
BLOCK
  8
0
  2
LCA2
 70
0
 10
0
 20
0
  0
SOLID
  8
1
 62
7 
 10
0
 20
0
 11
-1.65
 21
-0.525
 12
-1.65
 22
0.525
 13
-1.65
 23
0.525
  0
ENDBLK
  8
0
  0
BLOCK
  8
0
  2
LCA3
 70
0
 10
0
 20
0
  0
SOLID
  8
1
 62
7 
 10
0
 20
0
 11
-2.15
 21
-1.15
 12
-2.15
 22
1.15
 13
-2.15
 23
1.15
  0
ENDBLK
  8
0
  0
BLOCK
  8
0
  2
LCA1R
 70
0
 10
0
 20
0
  0
SOLID
  8
1
 62
7 
 10
0
 20
0
 11
1.4
 21
-0.275
 12
1.4
 22
0.275
 13
1.4
 23
0.275
  0
ENDBLK
  8
0
  0
BLOCK
  8
0
  2
LCA2R
 70
0
 10
0
 20
0
  0
SOLID
  8
1
 62
7 
 10
0
 20
0
 11
1.65
 21
-0.525
 12
1.65
 22
0.525
 13
1.65
 23
0.525
  0
ENDBLK
  8
0
  0
BLOCK
  8
0
  2
LCA3R
 70
0
 10
0
 20
0
  0
SOLID
  8
1
 62
7 
 10
0
 20
0
 11
2.15
 21
-1.15
 12
2.15
 22
1.15
 13
2.15
 23
1.15
  0
ENDBLK
  8
0
  0
BLOCK
  8
0
  2
B83065_00995864
 70
0
 10
0
 20
0
  0
POLYLINE
  8
1
 66
1
  0
VERTEX
  8
1
 10
-40.44712433815
 20
10.6861162980398
  0
VERTEX
  8
1
 10
41.55287566185
 20
10.6861162980398
  0
VERTEX
  8
1
 10
41.55287566185
 20
-9.31388370196025
  0
VERTEX
  8
1
 10
-40.44712433815
 20
-9.31388370196025
  0
VERTEX
  8
1
 10
-40.44712433815
 20
10.6861162980398
  0
SEQEND
  8
1
  0
LINE
  8
1
  6
DOT
 10
-12.44712433815
 20
-5.31388370196025
 11
25.55287566185
 21
-5.31388370196025
  0
LINE
  8
1
  6
DOT
 10
25.55287566185
 20
-3.31388370196025
 11
25.55287566185
 21
-5.31388370196025
  0
LINE
  8
1
  6
DOT
 10
-14.44712433815
 20
-3.31388370196025
 11
-12.44712433815
 21
-5.31388370196025
  0
LINE
  8
1
 10
9.55287566184997
 20
-3.31388370196025
 11
9.55287566184997
 21
-9.31388370196025
  0
LINE
  8
1
 10
-30.44712433815
 20
-3.31388370196025
 11
-30.44712433815
 21
-9.31388370196025
  0
LINE
  8
1
 10
25.55287566185
 20
10.6861162980398
 11
25.55287566185
 21
4.68611629803975
  0
LINE
  8
1
 10
-14.44712433815
 20
10.6861162980398
 11
-14.44712433815
 21
4.68611629803975
  0
LINE
  8
1
 10
-10.44712433815
 20
-3.31388370196025
 11
-10.44712433815
 21
-9.31388370196025
  0
LINE
  8
1
 10
29.55287566185
 20
-3.31388370196025
 11
29.55287566185
 21
-9.31388370196025
  0
LINE
  8
1
 10
-14.44712433815
 20
-3.31388370196025
 11
-14.44712433815
 21
-9.31388370196025
  0
TEXT
  8
1
 40
2.475
 41
0.75
  1
(12)
  7
STANDARD
 73
2
 10
9.32053249677023
 20
-12.3138837019602
 11
9.32053249677023
 21
-12.3138837019602
  0
TEXT
  8
1
 40
2.4
 41
0.75
  1
(14)
  7
STANDARD
 73
2
 10
-30.7794675032298
 20
-12.3138837019602
 11
-30.7794675032298
 21
-12.3138837019602
  0
TEXT
  8
1
 40
2.4
 41
0.75
  1
10(12)
  7
STANDARD
 72
2
 73
2
 10
9.43354172706604
 20
7.78611629803975
 11
9.43354172706604
 21
7.78611629803975
  0
TEXT
  8
1
 40
2.4
 41
0.75
  1
10(14)
  7
STANDARD
 72
2
 73
2
 10
-29.666458272934
 20
7.78611629803975
 11
-29.666458272934
 21
7.78611629803975
  0
TEXT
  8
1
 40
2.47464580535889
 41
0.75
  1
10
  7
STANDARD
 72
2
 73
2
 10
9.55287566184997
 20
-12.2861162980397
 11
9.55287566184997
 21
-12.2861162980397
  0
LINE
  8
1
 10
9.55287566184997
 20
-9.31388370196025
 11
9.55287566184997
 21
-13.3138837019602
  0
TEXT
  8
1
 40
2.4
 41
0.75
  1
10
  7
STANDARD
 72
2
 73
2
 10
-30.44712433815
 20
-12.3416511058807
 11
-30.44712433815
 21
-12.3416511058807
  0
LINE
  8
1
 10
-30.44712433815
 20
-9.31388370196025
 11
-30.44712433815
 21
-13.3138837019602
  0
TEXT
  8
1
 40
2.4
 41
0.75
  1
5
  7
STANDARD
 73
2
 10
-10.0216177725838
 20
-12.367157671447
 11
-10.0216177725838
 21
-12.367157671447
  0
LINE
  8
1
 10
-10.44712433815
 20
-9.31388370196025
 11
-10.44712433815
 21
-13.3138837019602
  0
TEXT
  8
1
 40
2.4
 41
0.75
  1
4
  7
STANDARD
 72
2
 73
2
 10
-14.44712433815
 20
13.3138837019602
 11
-14.44712433815
 21
13.3138837019602
  0
LINE
  8
1
 10
-14.44712433815
 20
10.6861162980398
 11
-14.44712433815
 21
14.6861162980398
  0
TEXT
  8
1
 40
2.4
 41
0.75
  1
3
  7
STANDARD
 73
2
 10
30.1104441471317
 20
-12.4224616107868
 11
30.1104441471317
 21
-12.4224616107868
  0
LINE
  8
1
 10
29.55287566185
 20
-9.31388370196025
 11
29.55287566185
 21
-13.3138837019602
  0
TEXT
  8
1
 40
2.4
 41
0.75
  1
2
  7
STANDARD
 72
2
 73
2
 10
25.55287566185
 20
13.1138837019602
 11
25.55287566185
 21
13.1138837019602
  0
LINE
  8
1
 10
25.55287566185
 20
10.6861162980398
 11
25.55287566185
 21
14.6861162980398
  0
TEXT
  8
1
 40
2.4
 41
0.75
  1
1
  7
STANDARD
 72
2
 73
2
 10
-11.137445537607
 20
-12.2820563583337
 11
-11.137445537607
 21
-12.2820563583337
  0
LINE
  8
1
 10
-14.44712433815
 20
-9.31388370196025
 11
-14.44712433815
 21
-13.3138837019602
  0
LINE
  8
1
 10
5.55287566184997
 20
-3.31388370196025
 11
7.55287566184997
 21
0.686116298039754
  0
POLYLINE
  8
1
 66
1
  0
VERTEX
  8
1
 10
3.55287566184997
 20
0.686116298039753
  0
VERTEX
  8
1
 10
9.55287566184997
 20
0.686116298039753
  0
VERTEX
  8
1
 10
9.55287566184997
 20
-3.31388370196025
  0
VERTEX
  8
1
 10
3.55287566184997
 20
-3.31388370196025
  0
VERTEX
  8
1
 10
3.55287566184997
 20
0.686116298039753
  0
SEQEND
  8
1
  0
LINE
  8
1
 10
-34.44712433815
 20
-3.31388370196025
 11
-32.44712433815
 21
0.686116298039754
  0
POLYLINE
  8
1
 66
1
  0
VERTEX
  8
1
 10
-36.44712433815
 20
0.686116298039753
  0
VERTEX
  8
1
 10
-30.44712433815
 20
0.686116298039753
  0
VERTEX
  8
1
 10
-30.44712433815
 20
-3.31388370196025
  0
VERTEX
  8
1
 10
-36.44712433815
 20
-3.31388370196025
  0
VERTEX
  8
1
 10
-36.44712433815
 20
0.686116298039753
  0
SEQEND
  8
1
  0
POLYLINE
  8
1
 66
1
  0
VERTEX
  8
1
 10
36.55287566185
 20
-1.31388370196025
  0
VERTEX
  8
1
 10
36.1362089951832
 20
-3.31388370196025
  0
VERTEX
  8
1
 10
35.30287566185
 20
0.686116298039753
  0
VERTEX
  8
1
 10
34.4695423285167
 20
-3.31388370196025
  0
VERTEX
  8
1
 10
33.6362089951832
 20
0.686116298039753
  0
VERTEX
  8
1
 10
32.80287566185
 20
-3.31388370196025
  0
VERTEX
  8
1
 10
31.9695423285167
 20
0.686116298039753
  0
VERTEX
  8
1
 10
31.55287566185
 20
-1.31388370196025
  0
SEQEND
  8
1
  0
POLYLINE
  8
1
 66
1
  0
VERTEX
  8
1
 10
-3.44712433815003
 20
-1.31388370196025
  0
VERTEX
  8
1
 10
-3.86379100481675
 20
-3.31388370196025
  0
VERTEX
  8
1
 10
-4.69712433815003
 20
0.686116298039753
  0
VERTEX
  8
1
 10
-5.53045767148328
 20
-3.31388370196025
  0
VERTEX
  8
1
 10
-6.36379100481678
 20
0.686116298039753
  0
VERTEX
  8
1
 10
-7.19712433815003
 20
-3.31388370196025
  0
VERTEX
  8
1
 10
-8.03045767148328
 20
0.686116298039753
  0
VERTEX
  8
1
 10
-8.44712433815003
 20
-1.31388370196025
  0
SEQEND
  8
1
  0
LINE
  8
1
 10
12.5528257213913
 20
-1.31388370196025
 11
9.55282572139128
 21
-3.31388370196025
  0
LINE
  8
1
 10
9.55282572139128
 20
0.686116298039754
 11
12.5528257213913
 21
-1.31388370196025
  0
POLYLINE
  8
1
 66
1
  0
VERTEX
  8
1
 10
9.55282572139128
 20
0.686116298039753
  0
VERTEX
  8
1
 10
15.5528257213913
 20
0.686116298039753
  0
VERTEX
  8
1
 10
15.5528257213913
 20
-3.31388370196025
  0
VERTEX
  8
1
 10
9.55282572139128
 20
-3.31388370196025
  0
VERTEX
  8
1
 10
9.55282572139128
 20
0.686116298039753
  0
SEQEND
  8
1
  0
LINE
  8
1
 10
-27.44712433815
 20
-1.31388370196025
 11
-30.44712433815
 21
-3.31388370196025
  0
LINE
  8
1
 10
-30.44712433815
 20
0.686116298039754
 11
-27.44712433815
 21
-1.31388370196025
  0
POLYLINE
  8
1
 66
1
  0
VERTEX
  8
1
 10
-30.44712433815
 20
0.686116298039753
  0
VERTEX
  8
1
 10
-24.44712433815
 20
0.686116298039753
  0
VERTEX
  8
1
 10
-24.44712433815
 20
-3.31388370196025
  0
VERTEX
  8
1
 10
-30.44712433815
 20
-3.31388370196025
  0
VERTEX
  8
1
 10
-30.44712433815
 20
0.686116298039753
  0
SEQEND
  8
1
  0
LINE
  8
1
 10
5.55287566184997
 20
4.18611629803975
 11
9.55287566184997
 21
4.18611629803975
  0
LINE
  8
1
 10
5.55287566184997
 20
4.68611629803975
 11
5.55287566184997
 21
1.68611629803975
  0
LINE
  8
1
 10
5.55287566184997
 20
2.18611629803975
 11
9.55287566184997
 21
2.18611629803975
  0
LINE
  8
1
 10
9.55287566184997
 20
0.686116298039754
 11
9.55287566184997
 21
4.68611629803975
  0
LINE
  8
1
 10
-34.44712433815
 20
4.18611629803975
 11
-30.44712433815
 21
4.18611629803975
  0
LINE
  8
1
 10
-34.44712433815
 20
4.68611629803975
 11
-34.44712433815
 21
1.68611629803975
  0
LINE
  8
1
 10
-34.44712433815
 20
2.18611629803975
 11
-30.44712433815
 21
2.18611629803975
  0
LINE
  8
1
 10
-30.44712433815
 20
0.686116298039754
 11
-30.44712433815
 21
4.68611629803975
  0
LINE
  8
1
 10
17.55287566185
 20
-3.31388370196025
 11
17.55287566185
 21
-1.31388370196025
  0
INSERT
  8
1
  2
LCBP1
 10
17.55287566185
 20
-1.31388370196025
 50
90
  0
POLYLINE
  8
1
 66
1
  0
VERTEX
  8
1
 10
15.55287566185
 20
4.68611629803975
  0
VERTEX
  8
1
 10
23.55287566185
 20
4.68611629803975
  0
VERTEX
  8
1
 10
23.55287566185
 20
-3.31388370196025
  0
VERTEX
  8
1
 10
15.55287566185
 20
-3.31388370196025
  0
VERTEX
  8
1
 10
15.55287566185
 20
4.68611629803975
  0
SEQEND
  8
1
  0
LINE
  8
1
 10
17.55287566185
 20
4.68611629803975
 11
21.55287566185
 21
-3.31388370196025
  0
INSERT
  8
1
  2
LCA1
 10
21.55287566185
 20
-3.31388370196025
 50
-63.434948822922
  0
LINE
  8
1
 10
-22.44712433815
 20
-3.31388370196025
 11
-22.44712433815
 21
-1.31388370196025
  0
INSERT
  8
1
  2
LCBP1
 10
-22.44712433815
 20
-1.31388370196025
 50
90
  0
POLYLINE
  8
1
 66
1
  0
VERTEX
  8
1
 10
-24.44712433815
 20
4.68611629803975
  0
VERTEX
  8
1
 10
-16.44712433815
 20
4.68611629803975
  0
VERTEX
  8
1
 10
-16.44712433815
 20
-3.31388370196025
  0
VERTEX
  8
1
 10
-24.44712433815
 20
-3.31388370196025
  0
VERTEX
  8
1
 10
-24.44712433815
 20
4.68611629803975
  0
SEQEND
  8
1
  0
LINE
  8
1
 10
-22.44712433815
 20
4.68611629803975
 11
-18.44712433815
 21
-3.31388370196025
  0
INSERT
  8
1
  2
LCA1
 10
-18.44712433815
 20
-3.31388370196025
 50
-63.434948822922
  0
POLYLINE
  8
1
 66
1
  0
VERTEX
  8
1
 10
23.55287566185
 20
4.68611629803975
  0
VERTEX
  8
1
 10
31.55287566185
 20
4.68611629803975
  0
VERTEX
  8
1
 10
31.55287566185
 20
-3.31388370196025
  0
VERTEX
  8
1
 10
23.55287566185
 20
-3.31388370196025
  0
VERTEX
  8
1
 10
23.55287566185
 20
4.68611629803975
  0
SEQEND
  8
1
  0
LINE
  8
1
 10
29.55287566185
 20
-3.31388370196025
 11
29.55287566185
 21
-1.31388370196025
  0
INSERT
  8
1
  2
LCBP1
 10
29.55287566185
 20
-1.31388370196025
 50
90
  0
LINE
  8
1
 10
25.55287566185
 20
-3.31388370196025
 11
25.55287566185
 21
4.68611629803975
  0
INSERT
  8
1
  2
LCA1
 10
25.55287566185
 20
4.68611629803975
 50
90
  0
POLYLINE
  8
1
 66
1
  0
VERTEX
  8
1
 10
-16.44712433815
 20
4.68611629803975
  0
VERTEX
  8
1
 10
-8.44712433815003
 20
4.68611629803975
  0
VERTEX
  8
1
 10
-8.44712433815003
 20
-3.31388370196025
  0
VERTEX
  8
1
 10
-16.44712433815
 20
-3.31388370196025
  0
VERTEX
  8
1
 10
-16.44712433815
 20
4.68611629803975
  0
SEQEND
  8
1
  0
LINE
  8
1
 10
-10.44712433815
 20
-3.31388370196025
 11
-10.44712433815
 21
-1.31388370196025
  0
INSERT
  8
1
  2
LCBP1
 10
-10.44712433815
 20
-1.31388370196025
 50
90
  0
LINE
  8
1
 10
-14.44712433815
 20
-3.31388370196025
 11
-14.44712433815
 21
4.68611629803975
  0
INSERT
  8
1
  2
LCA1
 10
-14.44712433815
 20
4.68611629803975
 50
90
  0
CIRCLE
  8
CONNECTIONS
 10
9.55287566184997
 20
-13.3138837019602
 40
0
  0
CIRCLE
  8
CONNECTIONS
 10
-30.44712433815
 20
-13.3138837019602
 40
0
  0
CIRCLE
  8
CONNECTIONS
 10
-10.44712433815
 20
-13.3138837019602
 40
0
  0
CIRCLE
  8
CONNECTIONS
 10
-14.44712433815
 20
14.6861162980398
 40
0
  0
CIRCLE
  8
CONNECTIONS
 10
29.55287566185
 20
-13.3138837019602
 40
0
  0
CIRCLE
  8
CONNECTIONS
 10
25.55287566185
 20
14.6861162980398
 40
0
  0
CIRCLE
  8
CONNECTIONS
 10
-14.44712433815
 20
-13.3138837019602
 40
0
  0
CIRCLE
  8
CONNECTIONS
 10
3.55287566184997
 20
-1.31388370196025
 40
0
  0
CIRCLE
  8
CONNECTIONS
 10
-36.44712433815
 20
-1.31388370196025
 40
0
  0
ENDBLK
  8
0
  0
ENDSEC
  0
SECTION
  2
ENTITIES
  0
INSERT
  8
1
  2
B83065_00995864
 10
41.55287566185
 20
14.6861163775126
  0
ENDSEC
  0
EOF
