  0
SECTION
  2
HEADER
  9
$LIMMIN
 10
0
 20
0
  9
$LIMMAX
 10
52.5
 20
74.25
  9
$EXTMIN
 10
0
 20
44
  9
$EXTMAX
 10
0
 20
16
  0
ENDSEC
  0
SECTION
  2
TABLES
  0
TABLE
  2
LTYPE
 70
9
  0
LTYPE
  2
CONTINUOUS
 70
64
  3
Solid line
 72
65
 73
0
 40
0
  0
LTYPE
  2
DASHED
 70
64
  3
__ __ __ __ __ __ __ __ __
 72
65
 73
2
 40
0.75
 49
0.5
 49
-0.25
  0
LTYPE
  2
DOT
 70
64
  3
...........................
 72
65
 73
2
 40
0.25
 49
0
 49
-0.25
  0
LTYPE
  2
DASHDOT
 70
64
  3
__ . __ . __ . __ . __ . __ . 
 72
65
 73
4
 40
1
 49
0.5
 49
-0.25
 49
0
 49
-0.25
  0
ENDTAB
  0
TABLE
  2
LAYER
 70
10
  0
LAYER
  2
1
 70
0
 62
7
  6
CONTINUOUS
  0
LAYER
  2
CONNECTIONS
 70
0
 62
-7
  6
CONTINUOUS
  0
ENDTAB
  0
ENDSEC
  0
SECTION
  2
BLOCKS
  0
BLOCK
  8
0
  2
TRICON
 70
0
 10
0
 20
0
  0
POLYLINE
  8
1
 70
1
 66
1
 40
0.5
 41
0.5
  0
VERTEX
  8
1
 10
-0.25
 20
0
 42
1
  0
VERTEX
  8
1
 10
0.25
 20
0
 42
1
  0
SEQEND
  8
1
  0
ENDBLK
  8
0
  0
BLOCK
  8
0
  2
TRICONSMALL
 70
0
 10
0
 20
0
  0
POLYLINE
  8
1
 70
1
 66
1
 40
0.25
 41
0.25
  0
VERTEX
  8
1
 10
-0.125
 20
0
 42
1
  0
VERTEX
  8
1
 10
0.125
 20
0
 42
1
  0
SEQEND
  8
1
  0
ENDBLK
  8
0
  0
BLOCK
  8
0
  2
TRICONCIRCLE
 70
0
 10
0
 20
0
  0
CIRCLE
  8
1
 10
0
 20
0
 40
0.5
  0
ENDBLK
  8
0
  0
BLOCK
  8
0
  2
LCBP0
 70
0
 10
0
 20
0
  0
LINE
  8
1
 10
0
 20
-0.46875
 11
0
 21
0.46875
  0
ENDBLK
  8
0
  0
BLOCK
  8
0
  2
LCBP1
 70
0
 10
0
 20
0
  0
LINE
  8
1
 10
0
 20
-0.625
 11
0
 21
0.625
  0
ENDBLK
  8
0
  0
BLOCK
  8
0
  2
LCBP2
 70
0
 10
0
 20
0
  0
LINE
  8
1
 10
0
 20
-0.9375
 11
0
 21
0.9375
  0
ENDBLK
  8
0
  0
BLOCK
  8
0
  2
LCA1
 70
0
 10
0
 20
0
  0
SOLID
  8
1
 62
7 
 10
0
 20
0
 11
-1.4
 21
-0.275
 12
-1.4
 22
0.275
 13
-1.4
 23
0.275
  0
ENDBLK
  8
0
  0
BLOCK
  8
0
  2
LCA2
 70
0
 10
0
 20
0
  0
SOLID
  8
1
 62
7 
 10
0
 20
0
 11
-1.65
 21
-0.525
 12
-1.65
 22
0.525
 13
-1.65
 23
0.525
  0
ENDBLK
  8
0
  0
BLOCK
  8
0
  2
LCA3
 70
0
 10
0
 20
0
  0
SOLID
  8
1
 62
7 
 10
0
 20
0
 11
-2.15
 21
-1.15
 12
-2.15
 22
1.15
 13
-2.15
 23
1.15
  0
ENDBLK
  8
0
  0
BLOCK
  8
0
  2
LCA1R
 70
0
 10
0
 20
0
  0
SOLID
  8
1
 62
7 
 10
0
 20
0
 11
1.4
 21
-0.275
 12
1.4
 22
0.275
 13
1.4
 23
0.275
  0
ENDBLK
  8
0
  0
BLOCK
  8
0
  2
LCA2R
 70
0
 10
0
 20
0
  0
SOLID
  8
1
 62
7 
 10
0
 20
0
 11
1.65
 21
-0.525
 12
1.65
 22
0.525
 13
1.65
 23
0.525
  0
ENDBLK
  8
0
  0
BLOCK
  8
0
  2
LCA3R
 70
0
 10
0
 20
0
  0
SOLID
  8
1
 62
7 
 10
0
 20
0
 11
2.15
 21
-1.15
 12
2.15
 22
1.15
 13
2.15
 23
1.15
  0
ENDBLK
  8
0
  0
BLOCK
  8
0
  2
B158343_00995840
 70
0
 10
0
 20
0
  0
TEXT
  8
1
 40
2.475
 41
0.75
  1
12
  7
STANDARD
 73
2
 10
18
 20
2
 11
18
 21
2
  0
TEXT
  8
1
 40
2.475
 41
0.75
  1
14
  7
STANDARD
 72
2
 73
2
 10
-16.674909845988
 20
2
 11
-16.674909845988
 21
2
  0
TEXT
  8
1
 40
2.4
 41
0.75
  1
1
  7
STANDARD
 72
2
 10
6.56522102355956
 20
-7.77223259607951
 11
6.56522102355956
 21
-7.77223259607951
  0
TEXT
  8
1
 40
2.4
 41
0.75
  1
3
  7
STANDARD
 10
10.1
 20
-7.87223259607951
  0
TEXT
  8
1
 40
2.4
 41
0.75
  1
5
  7
STANDARD
 72
2
 10
2.26522102355957
 20
-7.7722325960795
 11
2.26522102355957
 21
-7.7722325960795
  0
TEXT
  8
1
 40
2.4
 41
0.75
  1
2
  7
STANDARD
 72
2
 10
10.2652210235596
 20
5.22776740392049
 11
10.2652210235596
 21
5.22776740392049
  0
TEXT
  8
1
 40
2.4
 41
0.75
  1
4
  7
STANDARD
 72
2
 10
1.94439822307959
 20
5.2
 11
1.94439822307959
 21
5.2
  0
LINE
  8
1
 10
10
 20
4
 11
10
 21
8
  0
LINE
  8
1
 10
2
 20
-4
 11
2
 21
-8
  0
LINE
  8
1
 10
2
 20
8
 11
2
 21
4
  0
LINE
  8
1
 10
6
 20
-4
 11
6
 21
-8
  0
LINE
  8
1
 10
10
 20
-4
 11
10
 21
-8
  0
LINE
  8
1
 10
15.9999999999931
 20
-2.06122040864173
 11
12
 21
-2.06122040864173
  0
LINE
  8
1
 10
19.4640885929621
 20
-2.06121289028915
 11
22
 21
-2.06121289028915
  0
LINE
  8
1
 10
19.4640885929621
 20
-0.061212890289152
 11
19.4640885929621
 21
-4.06121289028915
  0
LINE
  8
1
 10
19.4640885929621
 20
-0.061212890289152
 11
15.9999869778244
 21
-2.06121289028915
  0
LINE
  8
1
 10
19.4640885929621
 20
-4.06121289028915
 11
15.9999869778244
 21
-2.06121289028915
  0
LINE
  8
1
 10
-15.9999999999931
 20
-2
 11
-12
 21
-2
  0
LINE
  8
1
 10
-19.4640885929621
 20
-1.99999248164742
 11
-22
 21
-1.99999248164742
  0
LINE
  8
1
 10
-19.4640885929621
 20
7.51835257872813E-06
 11
-19.4640885929621
 21
-3.99999248164742
  0
LINE
  8
1
 10
-19.4640885929621
 20
7.51835257872813E-06
 11
-15.9999869778244
 21
-1.99999248164742
  0
LINE
  8
1
 10
-19.4640885929621
 20
-3.99999248164742
 11
-15.9999869778244
 21
-1.99999248164742
  0
LINE
  8
1
 10
16.75
 20
5
 11
16.75
 21
7
  0
LINE
  8
1
 10
15
 20
4
 11
15.5
 21
4
  0
POLYLINE
  8
1
 66
1
  0
VERTEX
  8
1
 10
12.5
 20
4
  0
VERTEX
  8
1
 10
12
 20
4
  0
VERTEX
  8
1
 10
12
 20
0
  0
VERTEX
  8
1
 10
18
 20
0
  0
VERTEX
  8
1
 10
18
 20
4
  0
VERTEX
  8
1
 10
18
 20
4
  0
SEQEND
  8
1
  0
POLYLINE
  8
1
 66
1
  0
VERTEX
  8
1
 10
15.5
 20
4
  0
VERTEX
  8
1
 10
16
 20
4
  0
VERTEX
  8
1
 10
16.75
 20
2.70096189432335
  0
VERTEX
  8
1
 10
17.5
 20
4
  0
VERTEX
  8
1
 10
18
 20
4
  0
SEQEND
  8
1
  0
POLYLINE
  8
1
 66
1
  0
VERTEX
  8
1
 10
12.5
 20
4
  0
VERTEX
  8
1
 10
13
 20
4
  0
VERTEX
  8
1
 10
13.75
 20
2.70096189432335
  0
VERTEX
  8
1
 10
14.5
 20
4
  0
VERTEX
  8
1
 10
15
 20
4
  0
SEQEND
  8
1
  0
POLYLINE
  8
1
 66
1
  0
VERTEX
  8
1
 10
-12
 20
4
  0
VERTEX
  8
1
 10
0
 20
4
  0
VERTEX
  8
1
 10
0
 20
-4
  0
VERTEX
  8
1
 10
-12
 20
-4
  0
VERTEX
  8
1
 10
-12
 20
4
  0
SEQEND
  8
1
  0
LINE
  8
1
 10
-10
 20
-4
 11
-10
 21
-2
  0
INSERT
  8
1
  2
LCBP1
 10
-10
 20
-2
 50
90
  0
LINE
  8
1
 10
-2
 20
4
 11
-2
 21
-4
  0
INSERT
  8
1
  2
LCA1
 10
-2
 20
-4
 50
-90
  0
LINE
  8
1
 10
-6
 20
-4
 11
-10
 21
4
  0
INSERT
  8
1
  2
LCA1
 10
-10
 20
4
 50
116.565051177078
  0
LINE
  8
1
 10
10
 20
-4
 11
10
 21
-2
  0
INSERT
  8
1
  2
LCBP1
 10
10
 20
-2
 50
90
  0
POLYLINE
  8
1
 66
1
  0
VERTEX
  8
1
 10
0
 20
4
  0
VERTEX
  8
1
 10
12
 20
4
  0
VERTEX
  8
1
 10
12
 20
-4
  0
VERTEX
  8
1
 10
0
 20
-4
  0
VERTEX
  8
1
 10
0
 20
4
  0
SEQEND
  8
1
  0
LINE
  8
1
 10
2
 20
4
 11
2
 21
-4
  0
INSERT
  8
1
  2
LCA1
 10
2
 20
-4
 50
-90
  0
LINE
  8
1
 10
6
 20
-4
 11
10
 21
4
  0
INSERT
  8
1
  2
LCA1
 10
10
 20
4
 50
63.434948822922
  0
CIRCLE
  8
CONNECTIONS
 10
22
 20
-2
 40
0
  0
CIRCLE
  8
CONNECTIONS
 10
-22
 20
-2
 40
0
  0
CIRCLE
  8
CONNECTIONS
 10
2
 20
8
 40
0
  0
CIRCLE
  8
CONNECTIONS
 10
10
 20
8
 40
0
  0
CIRCLE
  8
CONNECTIONS
 10
10
 20
-8
 40
0
  0
CIRCLE
  8
CONNECTIONS
 10
6
 20
-8
 40
0
  0
CIRCLE
  8
CONNECTIONS
 10
2
 20
-8
 40
0
  0
ENDBLK
  8
0
  0
ENDSEC
  0
SECTION
  2
ENTITIES
  0
INSERT
  8
1
  2
B158343_00995840
 10
22
 20
8
  0
ENDSEC
  0
EOF
