  0
SECTION
  2
HEADER
  9
$LIMMIN
 10
0
 20
0
  9
$LIMMAX
 10
52.5
 20
74.25
  9
$EXTMIN
 10
0
 20
224.180248419444
  9
$EXTMAX
 10
0
 20
30.0667938931297
  0
ENDSEC
  0
SECTION
  2
TABLES
  0
TABLE
  2
LTYPE
 70
9
  0
LTYPE
  2
CONTINUOUS
 70
64
  3
Solid line
 72
65
 73
0
 40
0
  0
LTYPE
  2
DASHED
 70
64
  3
__ __ __ __ __ __ __ __ __
 72
65
 73
2
 40
0.75
 49
0.5
 49
-0.25
  0
LTYPE
  2
DOT
 70
64
  3
...........................
 72
65
 73
2
 40
0.25
 49
0
 49
-0.25
  0
LTYPE
  2
DASHDOT
 70
64
  3
__ . __ . __ . __ . __ . __ . 
 72
65
 73
4
 40
1
 49
0.5
 49
-0.25
 49
0
 49
-0.25
  0
ENDTAB
  0
TABLE
  2
LAYER
 70
10
  0
LAYER
  2
1
 70
0
 62
7
  6
CONTINUOUS
  0
LAYER
  2
CONNECTIONS
 70
0
 62
-7
  6
CONTINUOUS
  0
ENDTAB
  0
ENDSEC
  0
SECTION
  2
BLOCKS
  0
BLOCK
  8
0
  2
TRICON
 70
0
 10
0
 20
0
  0
POLYLINE
  8
1
 70
1
 66
1
 40
0.5
 41
0.5
  0
VERTEX
  8
1
 10
-0.25
 20
0
 42
1
  0
VERTEX
  8
1
 10
0.25
 20
0
 42
1
  0
SEQEND
  8
1
  0
ENDBLK
  8
0
  0
BLOCK
  8
0
  2
TRICONSMALL
 70
0
 10
0
 20
0
  0
POLYLINE
  8
1
 70
1
 66
1
 40
0.25
 41
0.25
  0
VERTEX
  8
1
 10
-0.125
 20
0
 42
1
  0
VERTEX
  8
1
 10
0.125
 20
0
 42
1
  0
SEQEND
  8
1
  0
ENDBLK
  8
0
  0
BLOCK
  8
0
  2
TRICONCIRCLE
 70
0
 10
0
 20
0
  0
CIRCLE
  8
1
 10
0
 20
0
 40
0.5
  0
ENDBLK
  8
0
  0
BLOCK
  8
0
  2
LCBP0
 70
0
 10
0
 20
0
  0
LINE
  8
1
 10
0
 20
-0.46875
 11
0
 21
0.46875
  0
ENDBLK
  8
0
  0
BLOCK
  8
0
  2
LCBP1
 70
0
 10
0
 20
0
  0
LINE
  8
1
 10
0
 20
-0.625
 11
0
 21
0.625
  0
ENDBLK
  8
0
  0
BLOCK
  8
0
  2
LCBP2
 70
0
 10
0
 20
0
  0
LINE
  8
1
 10
0
 20
-0.9375
 11
0
 21
0.9375
  0
ENDBLK
  8
0
  0
BLOCK
  8
0
  2
LCA1
 70
0
 10
0
 20
0
  0
SOLID
  8
1
 62
7 
 10
0
 20
0
 11
-1.4
 21
-0.275
 12
-1.4
 22
0.275
 13
-1.4
 23
0.275
  0
ENDBLK
  8
0
  0
BLOCK
  8
0
  2
LCA2
 70
0
 10
0
 20
0
  0
SOLID
  8
1
 62
7 
 10
0
 20
0
 11
-1.65
 21
-0.525
 12
-1.65
 22
0.525
 13
-1.65
 23
0.525
  0
ENDBLK
  8
0
  0
BLOCK
  8
0
  2
LCA3
 70
0
 10
0
 20
0
  0
SOLID
  8
1
 62
7 
 10
0
 20
0
 11
-2.15
 21
-1.15
 12
-2.15
 22
1.15
 13
-2.15
 23
1.15
  0
ENDBLK
  8
0
  0
BLOCK
  8
0
  2
LCA1R
 70
0
 10
0
 20
0
  0
SOLID
  8
1
 62
7 
 10
0
 20
0
 11
1.4
 21
-0.275
 12
1.4
 22
0.275
 13
1.4
 23
0.275
  0
ENDBLK
  8
0
  0
BLOCK
  8
0
  2
LCA2R
 70
0
 10
0
 20
0
  0
SOLID
  8
1
 62
7 
 10
0
 20
0
 11
1.65
 21
-0.525
 12
1.65
 22
0.525
 13
1.65
 23
0.525
  0
ENDBLK
  8
0
  0
BLOCK
  8
0
  2
LCA3R
 70
0
 10
0
 20
0
  0
SOLID
  8
1
 62
7 
 10
0
 20
0
 11
2.15
 21
-1.15
 12
2.15
 22
1.15
 13
2.15
 23
1.15
  0
ENDBLK
  8
0
  0
BLOCK
  8
0
  2
B3675_00995812
 70
0
 10
0
 20
0
  0
LINE
  8
1
 10
-84.0899043083191
 20
-15.0333969465649
 11
87.9100956916809
 21
-15.0333969465649
  0
LINE
  8
1
 10
98.5505889225153
 20
4.58287783390373
 11
95.6985199724423
 21
-9.54426623781254
  0
ARC
  8
1
 10
90.9351469735223
 20
7.03339694656487
 40
8
 50
342.162711720608
 51
90
  0
ARC
  8
1
 10
88.1027622484052
 20
-7.03339694656487
 40
8
 50
270
 51
341.708074025052
  0
LINE
  8
1
 10
-87.0899043083191
 20
15.0333969465649
 11
90.9100956916809
 21
15.0333969465649
  0
ARC
  8
1
 10
-87.0648530264777
 20
7.03339694656487
 40
8
 50
90
 51
197.611225192215
  0
LINE
  8
1
 10
-94.6899043083191
 20
4.5024595583476
 11
-91.5873812429205
 21
-9.78553766551696
  0
POLYLINE
  8
1
 70
0
 66
1
 40
0
 41
0
  0
VERTEX
  8
1
 10
-91.5873812429205
 20
-9.78553766551698
 42
0
 70
2
 50
90
  0
VERTEX
  8
1
 10
-91.4244172498464
 20
-10.1971563734344
 42
0
 70
2
 50
90
  0
VERTEX
  8
1
 10
-91.2386947503636
 20
-10.5991308808394
 42
0
 70
2
 50
90
  0
VERTEX
  8
1
 10
-91.0307880674303
 20
-10.990218133235
 42
0
 70
2
 50
90
  0
VERTEX
  8
1
 10
-90.8013401257402
 20
-11.3692087435611
 42
0
 70
2
 50
90
  0
VERTEX
  8
1
 10
-90.5510604635613
 20
-11.7349307320684
 42
0
 70
2
 50
90
  0
VERTEX
  8
1
 10
-90.2807230385796
 20
-12.0862531505151
 42
0
 70
2
 50
90
  0
VERTEX
  8
1
 10
-89.9911638345343
 20
-12.4220895794787
 42
0
 70
2
 50
90
  0
VERTEX
  8
1
 10
-89.6832782760457
 20
-12.7414014879691
 42
0
 70
2
 50
90
  0
VERTEX
  8
1
 10
-89.35801845963
 20
-13.0432014449516
 42
0
 70
2
 50
90
  0
VERTEX
  8
1
 10
-89.0163902094623
 20
-13.3265561728508
 42
0
 70
2
 50
90
  0
VERTEX
  8
1
 10
-88.6594499669958
 20
-13.5905894335911
 42
0
 70
2
 50
90
  0
VERTEX
  8
1
 10
-88.2883015240513
 20
-13.834484738251
 42
0
 70
2
 50
90
  0
VERTEX
  8
1
 10
-87.9040926094835
 20
-14.0574878719495
 42
0
 70
2
 50
90
  0
VERTEX
  8
1
 10
-87.508011339977
 20
-14.2589092261592
 42
0
 70
2
 50
90
  0
VERTEX
  8
1
 10
-87.1012825459479
 20
-14.4381259312315
 42
0
 70
2
 50
90
  0
VERTEX
  8
1
 10
-86.6851639839134
 20
-14.5945837825414
 42
0
 70
2
 50
90
  0
VERTEX
  8
1
 10
-86.2609424470413
 20
-14.7277989542938
 42
0
 70
2
 50
90
  0
VERTEX
  8
1
 10
-85.8299297859077
 20
-14.8373594956928
 42
0
 70
2
 50
90
  0
VERTEX
  8
1
 10
-85.3934588517673
 20
-14.9229266048462
 42
0
 70
2
 50
90
  0
VERTEX
  8
1
 10
-84.9528793748829
 20
-14.9842356764673
 42
0
 70
2
 50
90
  0
VERTEX
  8
1
 10
-84.5095537906574
 20
-15.0210971201324
 42
0
 70
2
 50
90
  0
VERTEX
  8
1
 10
-84.0648530264777
 20
-15.0333969465649
 42
0
 70
2
 50
90
  0
SEQEND
  8
1
  0
SOLID
  8
1
 10
83.9100956916809
 20
-3.96660305343513
 11
89.9100956916809
 21
-3.96660305343513
 12
83.9100956916809
 22
-5.96660305343513
 13
89.9100956916809
 23
-5.96660305343513
  0
SOLID
  8
1
 10
89.9100956916809
 20
-5.96660305343513
 11
83.9100956916809
 21
-5.96660305343513
 12
83.9100956916809
 22
-5.96660305343513
 13
83.9100956916809
 23
-3.96660305343513
  0
SOLID
  8
1
 10
73.9100956916809
 20
-3.96660305343513
 11
79.9100956916809
 21
-3.96660305343513
 12
73.9100956916809
 22
-5.96660305343513
 13
79.9100956916809
 23
-5.96660305343513
  0
SOLID
  8
1
 10
79.9100956916809
 20
-5.96660305343513
 11
73.9100956916809
 21
-5.96660305343513
 12
73.9100956916809
 22
-5.96660305343513
 13
73.9100956916809
 23
-3.96660305343513
  0
SOLID
  8
1
 10
63.9100956916809
 20
-3.96660305343513
 11
69.9100956916809
 21
-3.96660305343513
 12
63.9100956916809
 22
-5.96660305343513
 13
69.9100956916809
 23
-5.96660305343513
  0
SOLID
  8
1
 10
69.9100956916809
 20
-5.96660305343513
 11
63.9100956916809
 21
-5.96660305343513
 12
63.9100956916809
 22
-5.96660305343513
 13
63.9100956916809
 23
-3.96660305343513
  0
SOLID
  8
1
 10
53.9100956916809
 20
-3.96660305343513
 11
59.9100956916809
 21
-3.96660305343513
 12
53.9100956916809
 22
-5.96660305343513
 13
59.9100956916809
 23
-5.96660305343513
  0
SOLID
  8
1
 10
59.9100956916809
 20
-5.96660305343513
 11
53.9100956916809
 21
-5.96660305343513
 12
53.9100956916809
 22
-5.96660305343513
 13
53.9100956916809
 23
-3.96660305343513
  0
SOLID
  8
1
 10
43.9100956916809
 20
-3.96660305343513
 11
49.9100956916809
 21
-3.96660305343513
 12
43.9100956916809
 22
-5.96660305343513
 13
49.9100956916809
 23
-5.96660305343513
  0
SOLID
  8
1
 10
49.9100956916809
 20
-5.96660305343513
 11
43.9100956916809
 21
-5.96660305343513
 12
43.9100956916809
 22
-5.96660305343513
 13
43.9100956916809
 23
-3.96660305343513
  0
SOLID
  8
1
 10
33.9100956916809
 20
-3.96660305343513
 11
39.9100956916809
 21
-3.96660305343513
 12
33.9100956916809
 22
-5.96660305343513
 13
39.9100956916809
 23
-5.96660305343513
  0
SOLID
  8
1
 10
39.9100956916809
 20
-5.96660305343513
 11
33.9100956916809
 21
-5.96660305343513
 12
33.9100956916809
 22
-5.96660305343513
 13
33.9100956916809
 23
-3.96660305343513
  0
SOLID
  8
1
 10
23.9100956916809
 20
-3.96660305343513
 11
29.9100956916809
 21
-3.96660305343513
 12
23.9100956916809
 22
-5.96660305343513
 13
29.9100956916809
 23
-5.96660305343513
  0
SOLID
  8
1
 10
29.9100956916809
 20
-5.96660305343513
 11
23.9100956916809
 21
-5.96660305343513
 12
23.9100956916809
 22
-5.96660305343513
 13
23.9100956916809
 23
-3.96660305343513
  0
SOLID
  8
1
 10
13.9100956916809
 20
-3.96660305343513
 11
19.9100956916809
 21
-3.96660305343513
 12
13.9100956916809
 22
-5.96660305343513
 13
19.9100956916809
 23
-5.96660305343513
  0
SOLID
  8
1
 10
19.9100956916809
 20
-5.96660305343513
 11
13.9100956916809
 21
-5.96660305343513
 12
13.9100956916809
 22
-5.96660305343513
 13
13.9100956916809
 23
-3.96660305343513
  0
SOLID
  8
1
 10
3.91009569168091
 20
-3.96660305343513
 11
9.91009569168091
 21
-3.96660305343513
 12
3.91009569168091
 22
-5.96660305343513
 13
9.91009569168091
 23
-5.96660305343513
  0
SOLID
  8
1
 10
9.91009569168091
 20
-5.96660305343513
 11
3.91009569168091
 21
-5.96660305343513
 12
3.91009569168091
 22
-5.96660305343513
 13
3.91009569168091
 23
-3.96660305343513
  0
SOLID
  8
1
 10
-6.08990430831909
 20
-3.96660305343513
 11
-0.0899043083190918
 21
-3.96660305343513
 12
-6.08990430831909
 22
-5.96660305343513
 13
-0.0899043083190918
 23
-5.96660305343513
  0
SOLID
  8
1
 10
-0.0899043083190918
 20
-5.96660305343513
 11
-6.08990430831909
 21
-5.96660305343513
 12
-6.08990430831909
 22
-5.96660305343513
 13
-6.08990430831909
 23
-3.96660305343513
  0
SOLID
  8
1
 10
-16.0899043083191
 20
-3.96660305343513
 11
-10.0899043083191
 21
-3.96660305343513
 12
-16.0899043083191
 22
-5.96660305343513
 13
-10.0899043083191
 23
-5.96660305343513
  0
SOLID
  8
1
 10
-10.0899043083191
 20
-5.96660305343513
 11
-16.0899043083191
 21
-5.96660305343513
 12
-16.0899043083191
 22
-5.96660305343513
 13
-16.0899043083191
 23
-3.96660305343513
  0
SOLID
  8
1
 10
-26.0899043083191
 20
-3.96660305343513
 11
-20.0899043083191
 21
-3.96660305343513
 12
-26.0899043083191
 22
-5.96660305343513
 13
-20.0899043083191
 23
-5.96660305343513
  0
SOLID
  8
1
 10
-20.0899043083191
 20
-5.96660305343513
 11
-26.0899043083191
 21
-5.96660305343513
 12
-26.0899043083191
 22
-5.96660305343513
 13
-26.0899043083191
 23
-3.96660305343513
  0
SOLID
  8
1
 10
-36.0899043083191
 20
-3.96660305343513
 11
-30.0899043083191
 21
-3.96660305343513
 12
-36.0899043083191
 22
-5.96660305343513
 13
-30.0899043083191
 23
-5.96660305343513
  0
SOLID
  8
1
 10
-30.0899043083191
 20
-5.96660305343513
 11
-36.0899043083191
 21
-5.96660305343513
 12
-36.0899043083191
 22
-5.96660305343513
 13
-36.0899043083191
 23
-3.96660305343513
  0
SOLID
  8
1
 10
-46.0899043083191
 20
-3.96660305343513
 11
-40.0899043083191
 21
-3.96660305343513
 12
-46.0899043083191
 22
-5.96660305343513
 13
-40.0899043083191
 23
-5.96660305343513
  0
SOLID
  8
1
 10
-40.0899043083191
 20
-5.96660305343513
 11
-46.0899043083191
 21
-5.96660305343513
 12
-46.0899043083191
 22
-5.96660305343513
 13
-46.0899043083191
 23
-3.96660305343513
  0
SOLID
  8
1
 10
-56.0899043083191
 20
-3.96660305343513
 11
-50.0899043083191
 21
-3.96660305343513
 12
-56.0899043083191
 22
-5.96660305343513
 13
-50.0899043083191
 23
-5.96660305343513
  0
SOLID
  8
1
 10
-50.0899043083191
 20
-5.96660305343513
 11
-56.0899043083191
 21
-5.96660305343513
 12
-56.0899043083191
 22
-5.96660305343513
 13
-56.0899043083191
 23
-3.96660305343513
  0
SOLID
  8
1
 10
-66.0899043083191
 20
-3.96660305343513
 11
-60.0899043083191
 21
-3.96660305343513
 12
-66.0899043083191
 22
-5.96660305343513
 13
-60.0899043083191
 23
-5.96660305343513
  0
SOLID
  8
1
 10
-60.0899043083191
 20
-5.96660305343513
 11
-66.0899043083191
 21
-5.96660305343513
 12
-66.0899043083191
 22
-5.96660305343513
 13
-66.0899043083191
 23
-3.96660305343513
  0
SOLID
  8
1
 10
-76.0899043083191
 20
-3.96660305343513
 11
-70.0899043083191
 21
-3.96660305343513
 12
-76.0899043083191
 22
-5.96660305343513
 13
-70.0899043083191
 23
-5.96660305343513
  0
SOLID
  8
1
 10
-70.0899043083191
 20
-5.96660305343513
 11
-76.0899043083191
 21
-5.96660305343513
 12
-76.0899043083191
 22
-5.96660305343513
 13
-76.0899043083191
 23
-3.96660305343513
  0
SOLID
  8
1
 10
-86.0899043083191
 20
-3.96660305343513
 11
-80.0899043083191
 21
-3.96660305343513
 12
-86.0899043083191
 22
-5.96660305343513
 13
-80.0899043083191
 23
-5.96660305343513
  0
SOLID
  8
1
 10
-80.0899043083191
 20
-5.96660305343513
 11
-86.0899043083191
 21
-5.96660305343513
 12
-86.0899043083191
 22
-5.96660305343513
 13
-86.0899043083191
 23
-3.96660305343513
  0
SOLID
  8
1
 10
83.9100956916809
 20
6.03339694656487
 11
89.9100956916809
 21
6.03339694656487
 12
83.9100956916809
 22
4.03339694656487
 13
89.9100956916809
 23
4.03339694656487
  0
SOLID
  8
1
 10
89.9100956916809
 20
4.03339694656487
 11
83.9100956916809
 21
4.03339694656487
 12
83.9100956916809
 22
4.03339694656487
 13
83.9100956916809
 23
6.03339694656487
  0
SOLID
  8
1
 10
73.9100956916809
 20
6.03339694656487
 11
79.9100956916809
 21
6.03339694656487
 12
73.9100956916809
 22
4.03339694656487
 13
79.9100956916809
 23
4.03339694656487
  0
SOLID
  8
1
 10
79.9100956916809
 20
4.03339694656487
 11
73.9100956916809
 21
4.03339694656487
 12
73.9100956916809
 22
4.03339694656487
 13
73.9100956916809
 23
6.03339694656487
  0
SOLID
  8
1
 10
63.9100956916809
 20
6.03339694656487
 11
69.9100956916809
 21
6.03339694656487
 12
63.9100956916809
 22
4.03339694656487
 13
69.9100956916809
 23
4.03339694656487
  0
SOLID
  8
1
 10
69.9100956916809
 20
4.03339694656487
 11
63.9100956916809
 21
4.03339694656487
 12
63.9100956916809
 22
4.03339694656487
 13
63.9100956916809
 23
6.03339694656487
  0
SOLID
  8
1
 10
53.9100956916809
 20
6.03339694656487
 11
59.9100956916809
 21
6.03339694656487
 12
53.9100956916809
 22
4.03339694656487
 13
59.9100956916809
 23
4.03339694656487
  0
SOLID
  8
1
 10
59.9100956916809
 20
4.03339694656487
 11
53.9100956916809
 21
4.03339694656487
 12
53.9100956916809
 22
4.03339694656487
 13
53.9100956916809
 23
6.03339694656487
  0
SOLID
  8
1
 10
43.9100956916809
 20
6.03339694656487
 11
49.9100956916809
 21
6.03339694656487
 12
43.9100956916809
 22
4.03339694656487
 13
49.9100956916809
 23
4.03339694656487
  0
SOLID
  8
1
 10
49.9100956916809
 20
4.03339694656487
 11
43.9100956916809
 21
4.03339694656487
 12
43.9100956916809
 22
4.03339694656487
 13
43.9100956916809
 23
6.03339694656487
  0
SOLID
  8
1
 10
33.9100956916809
 20
6.03339694656487
 11
39.9100956916809
 21
6.03339694656487
 12
33.9100956916809
 22
4.03339694656487
 13
39.9100956916809
 23
4.03339694656487
  0
SOLID
  8
1
 10
39.9100956916809
 20
4.03339694656487
 11
33.9100956916809
 21
4.03339694656487
 12
33.9100956916809
 22
4.03339694656487
 13
33.9100956916809
 23
6.03339694656487
  0
SOLID
  8
1
 10
23.9100956916809
 20
6.03339694656487
 11
29.9100956916809
 21
6.03339694656487
 12
23.9100956916809
 22
4.03339694656487
 13
29.9100956916809
 23
4.03339694656487
  0
SOLID
  8
1
 10
29.9100956916809
 20
4.03339694656487
 11
23.9100956916809
 21
4.03339694656487
 12
23.9100956916809
 22
4.03339694656487
 13
23.9100956916809
 23
6.03339694656487
  0
SOLID
  8
1
 10
13.9100956916809
 20
6.03339694656487
 11
19.9100956916809
 21
6.03339694656487
 12
13.9100956916809
 22
4.03339694656487
 13
19.9100956916809
 23
4.03339694656487
  0
SOLID
  8
1
 10
19.9100956916809
 20
4.03339694656487
 11
13.9100956916809
 21
4.03339694656487
 12
13.9100956916809
 22
4.03339694656487
 13
13.9100956916809
 23
6.03339694656487
  0
SOLID
  8
1
 10
3.91009569168091
 20
6.03339694656487
 11
9.91009569168091
 21
6.03339694656487
 12
3.91009569168091
 22
4.03339694656487
 13
9.91009569168091
 23
4.03339694656487
  0
SOLID
  8
1
 10
9.91009569168091
 20
4.03339694656487
 11
3.91009569168091
 21
4.03339694656487
 12
3.91009569168091
 22
4.03339694656487
 13
3.91009569168091
 23
6.03339694656487
  0
SOLID
  8
1
 10
-6.08990430831909
 20
6.03339694656487
 11
-0.0899043083190918
 21
6.03339694656487
 12
-6.08990430831909
 22
4.03339694656487
 13
-0.0899043083190918
 23
4.03339694656487
  0
SOLID
  8
1
 10
-0.0899043083190918
 20
4.03339694656487
 11
-6.08990430831909
 21
4.03339694656487
 12
-6.08990430831909
 22
4.03339694656487
 13
-6.08990430831909
 23
6.03339694656487
  0
SOLID
  8
1
 10
-16.0899043083191
 20
6.03339694656487
 11
-10.0899043083191
 21
6.03339694656487
 12
-16.0899043083191
 22
4.03339694656487
 13
-10.0899043083191
 23
4.03339694656487
  0
SOLID
  8
1
 10
-10.0899043083191
 20
4.03339694656487
 11
-16.0899043083191
 21
4.03339694656487
 12
-16.0899043083191
 22
4.03339694656487
 13
-16.0899043083191
 23
6.03339694656487
  0
SOLID
  8
1
 10
-26.0899043083191
 20
6.03339694656487
 11
-20.0899043083191
 21
6.03339694656487
 12
-26.0899043083191
 22
4.03339694656487
 13
-20.0899043083191
 23
4.03339694656487
  0
SOLID
  8
1
 10
-20.0899043083191
 20
4.03339694656487
 11
-26.0899043083191
 21
4.03339694656487
 12
-26.0899043083191
 22
4.03339694656487
 13
-26.0899043083191
 23
6.03339694656487
  0
SOLID
  8
1
 10
-36.0899043083191
 20
6.03339694656487
 11
-30.0899043083191
 21
6.03339694656487
 12
-36.0899043083191
 22
4.03339694656487
 13
-30.0899043083191
 23
4.03339694656487
  0
SOLID
  8
1
 10
-30.0899043083191
 20
4.03339694656487
 11
-36.0899043083191
 21
4.03339694656487
 12
-36.0899043083191
 22
4.03339694656487
 13
-36.0899043083191
 23
6.03339694656487
  0
SOLID
  8
1
 10
-46.0899043083191
 20
6.03339694656487
 11
-40.0899043083191
 21
6.03339694656487
 12
-46.0899043083191
 22
4.03339694656487
 13
-40.0899043083191
 23
4.03339694656487
  0
SOLID
  8
1
 10
-40.0899043083191
 20
4.03339694656487
 11
-46.0899043083191
 21
4.03339694656487
 12
-46.0899043083191
 22
4.03339694656487
 13
-46.0899043083191
 23
6.03339694656487
  0
SOLID
  8
1
 10
-56.0899043083191
 20
6.03339694656487
 11
-50.0899043083191
 21
6.03339694656487
 12
-56.0899043083191
 22
4.03339694656487
 13
-50.0899043083191
 23
4.03339694656487
  0
SOLID
  8
1
 10
-50.0899043083191
 20
4.03339694656487
 11
-56.0899043083191
 21
4.03339694656487
 12
-56.0899043083191
 22
4.03339694656487
 13
-56.0899043083191
 23
6.03339694656487
  0
SOLID
  8
1
 10
-66.0899043083191
 20
6.03339694656487
 11
-60.0899043083191
 21
6.03339694656487
 12
-66.0899043083191
 22
4.03339694656487
 13
-60.0899043083191
 23
4.03339694656487
  0
SOLID
  8
1
 10
-60.0899043083191
 20
4.03339694656487
 11
-66.0899043083191
 21
4.03339694656487
 12
-66.0899043083191
 22
4.03339694656487
 13
-66.0899043083191
 23
6.03339694656487
  0
SOLID
  8
1
 10
-76.0899043083191
 20
6.03339694656487
 11
-70.0899043083191
 21
6.03339694656487
 12
-76.0899043083191
 22
4.03339694656487
 13
-70.0899043083191
 23
4.03339694656487
  0
SOLID
  8
1
 10
-70.0899043083191
 20
4.03339694656487
 11
-76.0899043083191
 21
4.03339694656487
 12
-76.0899043083191
 22
4.03339694656487
 13
-76.0899043083191
 23
6.03339694656487
  0
SOLID
  8
1
 10
-86.0899043083191
 20
6.03339694656487
 11
-80.0899043083191
 21
6.03339694656487
 12
-86.0899043083191
 22
4.03339694656487
 13
-80.0899043083191
 23
4.03339694656487
  0
SOLID
  8
1
 10
-80.0899043083191
 20
4.03339694656487
 11
-86.0899043083191
 21
4.03339694656487
 12
-86.0899043083191
 22
4.03339694656487
 13
-86.0899043083191
 23
6.03339694656487
  0
POLYLINE
  8
1
 66
1
  0
VERTEX
  8
1
 10
-86.0899043083191
 20
2.03339694656487
  0
VERTEX
  8
1
 10
89.9100956916809
 20
2.03339694656487
  0
VERTEX
  8
1
 10
89.9100956916809
 20
-1.96660305343513
  0
VERTEX
  8
1
 10
-86.0899043083191
 20
-1.96660305343513
  0
VERTEX
  8
1
 10
-86.0899043083191
 20
2.03339694656487
  0
SEQEND
  8
1
  0
TEXT
  8
1
 40
6.07521286010742
 41
0.75
  1
19
  7
STANDARD
 72
1
 73
2
 10
104.842691898346
 20
-5.59416573526903
 11
104.842691898346
 21
-5.59416573526903
  0
TEXT
  8
1
 40
6.07521286010742
 41
0.75
  1
36
  7
STANDARD
 72
1
 73
2
 10
-101.157814184825
 20
-5.59416573526903
 11
-101.157814184825
 21
-5.59416573526903
  0
TEXT
  8
1
 40
6.07521286010742
 41
0.75
  1
1
  7
STANDARD
 72
1
 73
2
 10
107.842691898346
 20
4.40583426473097
 11
107.842691898346
 21
4.40583426473097
  0
TEXT
  8
1
 40
6.07521286010742
 41
0.75
  1
18
  7
STANDARD
 72
1
 73
2
 10
-105.157814184825
 20
4.40583426473097
 11
-105.157814184825
 21
4.40583426473097
  0
ENDBLK
  8
0
  0
ENDSEC
  0
SECTION
  2
ENTITIES
  0
INSERT
  8
1
  2
B3675_00995812
 10
112.090124289195
 20
15.0333969465649
  0
ENDSEC
  0
EOF
