  0
SECTION
  2
HEADER
  9
$LIMMIN
 10
0
 20
0
  9
$LIMMAX
 10
52.5
 20
74.25
  9
$EXTMIN
 10
0
 20
88
  9
$EXTMAX
 10
0
 20
52
  0
ENDSEC
  0
SECTION
  2
TABLES
  0
TABLE
  2
LTYPE
 70
9
  0
LTYPE
  2
CONTINUOUS
 70
64
  3
Solid line
 72
65
 73
0
 40
0
  0
LTYPE
  2
DASHED
 70
64
  3
__ __ __ __ __ __ __ __ __
 72
65
 73
2
 40
0.75
 49
0.5
 49
-0.25
  0
LTYPE
  2
DOT
 70
64
  3
...........................
 72
65
 73
2
 40
0.25
 49
0
 49
-0.25
  0
LTYPE
  2
DASHDOT
 70
64
  3
__ . __ . __ . __ . __ . __ . 
 72
65
 73
4
 40
1
 49
0.5
 49
-0.25
 49
0
 49
-0.25
  0
ENDTAB
  0
TABLE
  2
LAYER
 70
10
  0
LAYER
  2
1
 70
0
 62
7
  6
CONTINUOUS
  0
LAYER
  2
CONNECTIONS
 70
0
 62
-7
  6
CONTINUOUS
  0
ENDTAB
  0
ENDSEC
  0
SECTION
  2
BLOCKS
  0
BLOCK
  8
0
  2
TRICON
 70
0
 10
0
 20
0
  0
POLYLINE
  8
1
 70
1
 66
1
 40
0.5
 41
0.5
  0
VERTEX
  8
1
 10
-0.25
 20
0
 42
1
  0
VERTEX
  8
1
 10
0.25
 20
0
 42
1
  0
SEQEND
  8
1
  0
ENDBLK
  8
0
  0
BLOCK
  8
0
  2
TRICONSMALL
 70
0
 10
0
 20
0
  0
POLYLINE
  8
1
 70
1
 66
1
 40
0.25
 41
0.25
  0
VERTEX
  8
1
 10
-0.125
 20
0
 42
1
  0
VERTEX
  8
1
 10
0.125
 20
0
 42
1
  0
SEQEND
  8
1
  0
ENDBLK
  8
0
  0
BLOCK
  8
0
  2
TRICONCIRCLE
 70
0
 10
0
 20
0
  0
CIRCLE
  8
1
 10
0
 20
0
 40
0.5
  0
ENDBLK
  8
0
  0
BLOCK
  8
0
  2
LCBP0
 70
0
 10
0
 20
0
  0
LINE
  8
1
 10
0
 20
-0.46875
 11
0
 21
0.46875
  0
ENDBLK
  8
0
  0
BLOCK
  8
0
  2
LCBP1
 70
0
 10
0
 20
0
  0
LINE
  8
1
 10
0
 20
-0.625
 11
0
 21
0.625
  0
ENDBLK
  8
0
  0
BLOCK
  8
0
  2
LCBP2
 70
0
 10
0
 20
0
  0
LINE
  8
1
 10
0
 20
-0.9375
 11
0
 21
0.9375
  0
ENDBLK
  8
0
  0
BLOCK
  8
0
  2
LCA1
 70
0
 10
0
 20
0
  0
SOLID
  8
1
 62
7 
 10
0
 20
0
 11
-1.4
 21
-0.275
 12
-1.4
 22
0.275
 13
-1.4
 23
0.275
  0
ENDBLK
  8
0
  0
BLOCK
  8
0
  2
LCA2
 70
0
 10
0
 20
0
  0
SOLID
  8
1
 62
7 
 10
0
 20
0
 11
-1.65
 21
-0.525
 12
-1.65
 22
0.525
 13
-1.65
 23
0.525
  0
ENDBLK
  8
0
  0
BLOCK
  8
0
  2
LCA3
 70
0
 10
0
 20
0
  0
SOLID
  8
1
 62
7 
 10
0
 20
0
 11
-2.15
 21
-1.15
 12
-2.15
 22
1.15
 13
-2.15
 23
1.15
  0
ENDBLK
  8
0
  0
BLOCK
  8
0
  2
LCA1R
 70
0
 10
0
 20
0
  0
SOLID
  8
1
 62
7 
 10
0
 20
0
 11
1.4
 21
-0.275
 12
1.4
 22
0.275
 13
1.4
 23
0.275
  0
ENDBLK
  8
0
  0
BLOCK
  8
0
  2
LCA2R
 70
0
 10
0
 20
0
  0
SOLID
  8
1
 62
7 
 10
0
 20
0
 11
1.65
 21
-0.525
 12
1.65
 22
0.525
 13
1.65
 23
0.525
  0
ENDBLK
  8
0
  0
BLOCK
  8
0
  2
LCA3R
 70
0
 10
0
 20
0
  0
SOLID
  8
1
 62
7 
 10
0
 20
0
 11
2.15
 21
-1.15
 12
2.15
 22
1.15
 13
2.15
 23
1.15
  0
ENDBLK
  8
0
  0
BLOCK
  8
0
  2
B3770_00995804
 70
0
 10
0
 20
0
  0
POLYLINE
  8
1
 66
1
  0
VERTEX
  8
1
 10
-38
 20
24
  0
VERTEX
  8
1
 10
23
 20
24
  0
VERTEX
  8
1
 10
23
 20
-24
  0
VERTEX
  8
1
 10
-38
 20
-24
  0
VERTEX
  8
1
 10
-38
 20
24
  0
SEQEND
  8
1
  0
POLYLINE
  8
1
  6
DASHDOT
 66
1
  0
VERTEX
  8
1
 10
-40
 20
26
  0
VERTEX
  8
1
 10
40
 20
26
  0
VERTEX
  8
1
 10
40
 20
-26
  0
VERTEX
  8
1
 10
-40
 20
-26
  0
VERTEX
  8
1
 10
-40
 20
26
  0
SEQEND
  8
1
  0
POLYLINE
  8
1
 70
1
 66
1
 40
0.5
 41
0.5
  0
VERTEX
  8
1
 10
16.75
 20
-2
 42
1
  0
VERTEX
  8
1
 10
17.25
 20
-2
 42
1
  0
SEQEND
  8
1
  0
LINE
  8
1
 10
17
 20
-2
 11
17
 21
-10
  0
LINE
  8
1
 10
17
 20
-10
 11
27
 21
-10
  0
TEXT
  8
1
 40
2.47464580535889
 41
0.75
  1
2
  7
STANDARD
 10
42
 20
0.237322902679443
  0
LINE
  8
1
 10
7
 20
-2
 11
44
 21
-2
  0
LINE
  8
1
 10
-4
 20
-2
 11
-10
 21
-2
  0
LINE
  8
1
 10
-10
 20
-19
 11
-10
 21
-2
  0
LINE
  8
1
 10
-18
 20
22
 11
12
 21
22
  0
LINE
  8
1
 10
12
 20
22
 11
12
 21
18
  0
POLYLINE
  8
1
 70
1
 66
1
 40
0.5
 41
0.5
  0
VERTEX
  8
1
 10
-18.25
 20
22
 42
1
  0
VERTEX
  8
1
 10
-17.75
 20
22
 42
1
  0
SEQEND
  8
1
  0
LINE
  8
1
 10
-18
 20
-20
 11
27
 21
-20
  0
LINE
  8
1
 10
-18
 20
10
 11
-18
 21
-20
  0
TEXT
  8
1
 40
2.475
 41
0.75
  1
1
  7
STANDARD
 72
2
 10
-41.5
 20
22.7375
 11
-41.5
 21
22.7375
  0
LINE
  8
1
 10
-44
 20
22
 11
-18
 21
22
  0
LINE
  8
1
 10
-18
 20
22
 11
-18
 21
18
  0
ARC
  8
1
 10
-10
 20
-30
 40
9
 50
70.528596800055
 51
109.471050579339
  0
ARC
  8
1
 10
-10
 20
-10
 40
9
 50
250.52865870751
 51
289.47139531546
  0
LINE
  8
1
 10
12
 20
10
 11
12
 21
-2
  0
ARC
  8
1
 10
2
 20
4
 40
9
 50
340.528596800055
 51
19.4710505793386
  0
ARC
  8
1
 10
22
 20
4
 40
9
 50
160.52865870751
 51
199.47139531546
  0
LINE
  8
1
 10
8.5
 20
2.5
 11
15.5
 21
5.5
  0
INSERT
  8
1
  2
LCA1
 10
15.5
 20
5.5
 50
23.1985905136482
  0
POLYLINE
  8
1
 70
1
 66
1
 40
0.5
 41
0.5
  0
VERTEX
  8
1
 10
11.75
 20
-2
 42
1
  0
VERTEX
  8
1
 10
12.25
 20
-2
 42
1
  0
SEQEND
  8
1
  0
POLYLINE
  8
1
 66
1
  0
VERTEX
  8
1
 10
35
 20
-21
  0
VERTEX
  8
1
 10
37
 20
-20
  0
VERTEX
  8
1
 10
35
 20
-19
  0
SEQEND
  8
1
  0
LINE
  8
1
 10
33
 20
-18
 11
33
 21
-20
  0
LINE
  8
1
 10
31
 20
-22
 11
31
 21
-20
  0
LINE
  8
1
 10
29
 20
-18
 11
29
 21
-20
  0
POLYLINE
  8
1
 66
1
  0
VERTEX
  8
1
 10
27
 20
-18
  0
VERTEX
  8
1
 10
35
 20
-18
  0
VERTEX
  8
1
 10
35
 20
-22
  0
VERTEX
  8
1
 10
27
 20
-22
  0
VERTEX
  8
1
 10
27
 20
-18
  0
SEQEND
  8
1
  0
LINE
  8
1
  6
DASHED
 10
1.75685424949224
 20
3.65685424949228
 11
1.75685424949224
 21
-7.65685424949234
  0
POLYLINE
  8
1
 66
1
  0
VERTEX
  8
1
 10
-0.243118623771503
 20
-5.6568813762285
  0
VERTEX
  8
1
 10
1.756854249492
 20
-7.6568542494925
  0
VERTEX
  8
1
 10
3.7568665086905
 20
-5.6568419902945
  0
SEQEND
  8
1
  0
POLYLINE
  8
1
 66
1
  0
VERTEX
  8
1
 10
1.756854249492
 20
3.65685424949225
  0
VERTEX
  8
1
 10
-3.9
 20
-2
  0
VERTEX
  8
1
 10
1.756854249492
 20
-7.6568542494925
  0
VERTEX
  8
1
 10
7.4137084989845
 20
-2
  0
VERTEX
  8
1
 10
1.756854249492
 20
3.65685424949225
  0
SEQEND
  8
1
  0
POLYLINE
  8
1
 66
1
  0
VERTEX
  8
1
 10
-0.343118623772
 20
-5.6568813762285
  0
VERTEX
  8
1
 10
1.6568542494925
 20
-7.6568542494925
  0
VERTEX
  8
1
 10
3.6568665086905
 20
-5.6568419902945
  0
SEQEND
  8
1
  0
POLYLINE
  8
1
 66
1
  0
VERTEX
  8
1
 10
1.6568542494925
 20
3.65685424949225
  0
VERTEX
  8
1
 10
-4
 20
-2
  0
VERTEX
  8
1
 10
1.6568542494925
 20
-7.6568542494925
  0
VERTEX
  8
1
 10
7.313708498985
 20
-2
  0
VERTEX
  8
1
 10
1.6568542494925
 20
3.65685424949225
  0
SEQEND
  8
1
  0
LINE
  8
1
 10
4
 20
18
 11
4
 21
10
  0
INSERT
  8
1
  2
LCA1
 10
4
 20
10
 50
-90
  0
LINE
  8
1
 10
12
 20
18
 11
12
 21
16
  0
INSERT
  8
1
  2
LCBP1
 10
12
 20
16
 50
-90
  0
LINE
  8
1
 10
12
 20
10
 11
12
 21
12
  0
INSERT
  8
1
  2
LCBP1
 10
12
 20
12
 50
90
  0
POLYLINE
  8
1
 66
1
  0
VERTEX
  8
1
 10
0
 20
18
  0
VERTEX
  8
1
 10
8
 20
18
  0
VERTEX
  8
1
 10
8
 20
10
  0
VERTEX
  8
1
 10
0
 20
10
  0
VERTEX
  8
1
 10
0
 20
18
  0
SEQEND
  8
1
  0
POLYLINE
  8
1
 66
1
  0
VERTEX
  8
1
 10
8
 20
18
  0
VERTEX
  8
1
 10
16
 20
18
  0
VERTEX
  8
1
 10
16
 20
10
  0
VERTEX
  8
1
 10
8
 20
10
  0
VERTEX
  8
1
 10
8
 20
18
  0
SEQEND
  8
1
  0
LINE
  8
1
 10
-4
 20
17.5
 11
0
 21
17.5
  0
LINE
  8
1
 10
-4
 20
18
 11
-4
 21
15
  0
LINE
  8
1
 10
-4
 20
15.5
 11
0
 21
15.5
  0
LINE
  8
1
 10
0
 20
14
 11
0
 21
18
  0
LINE
  8
1
 10
-4
 20
10
 11
-2
 21
14
  0
POLYLINE
  8
1
 66
1
  0
VERTEX
  8
1
 10
-6
 20
14
  0
VERTEX
  8
1
 10
0
 20
14
  0
VERTEX
  8
1
 10
0
 20
10
  0
VERTEX
  8
1
 10
-6
 20
10
  0
VERTEX
  8
1
 10
-6
 20
14
  0
SEQEND
  8
1
  0
POLYLINE
  8
1
 66
1
  0
VERTEX
  8
1
 10
21
 20
12
  0
VERTEX
  8
1
 10
20.583333333333
 20
10
  0
VERTEX
  8
1
 10
19.75
 20
14
  0
VERTEX
  8
1
 10
18.9166666666665
 20
10
  0
VERTEX
  8
1
 10
18.083333333333
 20
14
  0
VERTEX
  8
1
 10
17.25
 20
10
  0
VERTEX
  8
1
 10
16.4166666666665
 20
14
  0
VERTEX
  8
1
 10
16
 20
12
  0
SEQEND
  8
1
  0
LINE
  8
1
 10
-18
 20
18
 11
-18
 21
16
  0
INSERT
  8
1
  2
LCBP1
 10
-18
 20
16
 50
-90
  0
LINE
  8
1
 10
-18
 20
10
 11
-18
 21
12
  0
INSERT
  8
1
  2
LCBP1
 10
-18
 20
12
 50
90
  0
LINE
  8
1
 10
-26
 20
18
 11
-26
 21
10
  0
INSERT
  8
1
  2
LCA1
 10
-26
 20
10
 50
-90
  0
POLYLINE
  8
1
 66
1
  0
VERTEX
  8
1
 10
-30
 20
18
  0
VERTEX
  8
1
 10
-22
 20
18
  0
VERTEX
  8
1
 10
-22
 20
10
  0
VERTEX
  8
1
 10
-30
 20
10
  0
VERTEX
  8
1
 10
-30
 20
18
  0
SEQEND
  8
1
  0
POLYLINE
  8
1
 66
1
  0
VERTEX
  8
1
 10
-22
 20
18
  0
VERTEX
  8
1
 10
-14
 20
18
  0
VERTEX
  8
1
 10
-14
 20
10
  0
VERTEX
  8
1
 10
-22
 20
10
  0
VERTEX
  8
1
 10
-22
 20
18
  0
SEQEND
  8
1
  0
LINE
  8
1
 10
-34
 20
17.5
 11
-30
 21
17.5
  0
LINE
  8
1
 10
-34
 20
18
 11
-34
 21
15
  0
LINE
  8
1
 10
-34
 20
15.5
 11
-30
 21
15.5
  0
LINE
  8
1
 10
-30
 20
14
 11
-30
 21
18
  0
LINE
  8
1
 10
-34
 20
10
 11
-32
 21
14
  0
POLYLINE
  8
1
 66
1
  0
VERTEX
  8
1
 10
-36
 20
14
  0
VERTEX
  8
1
 10
-30
 20
14
  0
VERTEX
  8
1
 10
-30
 20
10
  0
VERTEX
  8
1
 10
-36
 20
10
  0
VERTEX
  8
1
 10
-36
 20
14
  0
SEQEND
  8
1
  0
POLYLINE
  8
1
 66
1
  0
VERTEX
  8
1
 10
-9
 20
12
  0
VERTEX
  8
1
 10
-9.41666666666675
 20
10
  0
VERTEX
  8
1
 10
-10.25
 20
14
  0
VERTEX
  8
1
 10
-11.0833333333333
 20
10
  0
VERTEX
  8
1
 10
-11.9166666666667
 20
14
  0
VERTEX
  8
1
 10
-12.75
 20
10
  0
VERTEX
  8
1
 10
-13.5833333333333
 20
14
  0
VERTEX
  8
1
 10
-14
 20
12
  0
SEQEND
  8
1
  0
TEXT
  8
1
 40
2.47464580535889
 41
0.75
  1
2S
  7
STANDARD
 10
23
 20
-6.36267709732056
  0
LINE
  8
1
 10
33
 20
-7
 11
27
 21
-13
  0
POLYLINE
  8
1
 66
1
  0
VERTEX
  8
1
 10
33
 20
-7
  0
VERTEX
  8
1
 10
27
 20
-7
  0
VERTEX
  8
1
 10
27
 20
-13
  0
VERTEX
  8
1
 10
33
 20
-13
  0
VERTEX
  8
1
 10
33
 20
-7
  0
SEQEND
  8
1
  0
LINE
  8
1
 10
31.8
 20
-11.4
 11
31.8
 21
-12.1
  0
LINE
  8
1
 10
31.8
 20
-9.94999999999999
 11
32.5
 21
-11.75
  0
LINE
  8
1
 10
31.8
 20
-9.24999999999999
 11
31.8
 21
-9.94999999999999
  0
TEXT
  8
1
 40
1.85598435401917
 41
0.75
  1
P
  7
STANDARD
 50
270
 10
26.875
 20
-5.84912250041957
  0
LINE
  8
1
 10
33
 20
-7
 11
37
 21
-7
  0
LINE
  8
1
 10
32.4700463997784
 20
-4.15393861121589
 11
37.529794111136
 21
-9.84594643775752
  0
INSERT
  8
1
  2
LCA1
 10
37.529794111136
 20
-9.84594643775752
 50
-48.365419292402
  0
TEXT
  8
1
 40
2.47464580535889
 41
0.75
  1
3
  7
STANDARD
 10
23
 20
-18.7626770973206
  0
CIRCLE
  8
CONNECTIONS
 10
44
 20
-2
 40
0
  0
CIRCLE
  8
CONNECTIONS
 10
-44
 20
22
 40
0
  0
CIRCLE
  8
CONNECTIONS
 10
-6
 20
12
 40
0
  0
CIRCLE
  8
CONNECTIONS
 10
-36
 20
12
 40
0
  0
CIRCLE
  8
CONNECTIONS
 10
27
 20
-10
 40
0
  0
CIRCLE
  8
CONNECTIONS
 10
27
 20
-20
 40
0
  0
ENDBLK
  8
0
  0
ENDSEC
  0
SECTION
  2
ENTITIES
  0
INSERT
  8
1
  2
B3770_00995804
 10
44
 20
26
  0
ENDSEC
  0
EOF
