  0
SECTION
  2
HEADER
  9
$LIMMIN
 10
0
 20
0
  9
$LIMMAX
 10
52.5
 20
74.25
  9
$EXTMIN
 10
0
 20
65.3395223617554
  9
$EXTMAX
 10
0
 20
80
  0
ENDSEC
  0
SECTION
  2
TABLES
  0
TABLE
  2
LTYPE
 70
9
  0
LTYPE
  2
CONTINUOUS
 70
64
  3
Solid line
 72
65
 73
0
 40
0
  0
LTYPE
  2
DASHED
 70
64
  3
__ __ __ __ __ __ __ __ __
 72
65
 73
2
 40
0.75
 49
0.5
 49
-0.25
  0
LTYPE
  2
DOT
 70
64
  3
...........................
 72
65
 73
2
 40
0.25
 49
0
 49
-0.25
  0
LTYPE
  2
DASHDOT
 70
64
  3
__ . __ . __ . __ . __ . __ . 
 72
65
 73
4
 40
1
 49
0.5
 49
-0.25
 49
0
 49
-0.25
  0
ENDTAB
  0
TABLE
  2
LAYER
 70
10
  0
LAYER
  2
1
 70
0
 62
7
  6
CONTINUOUS
  0
LAYER
  2
CONNECTIONS
 70
0
 62
-7
  6
CONTINUOUS
  0
ENDTAB
  0
ENDSEC
  0
SECTION
  2
BLOCKS
  0
BLOCK
  8
0
  2
TRICON
 70
0
 10
0
 20
0
  0
POLYLINE
  8
1
 70
1
 66
1
 40
0.5
 41
0.5
  0
VERTEX
  8
1
 10
-0.25
 20
0
 42
1
  0
VERTEX
  8
1
 10
0.25
 20
0
 42
1
  0
SEQEND
  8
1
  0
ENDBLK
  8
0
  0
BLOCK
  8
0
  2
TRICONSMALL
 70
0
 10
0
 20
0
  0
POLYLINE
  8
1
 70
1
 66
1
 40
0.25
 41
0.25
  0
VERTEX
  8
1
 10
-0.125
 20
0
 42
1
  0
VERTEX
  8
1
 10
0.125
 20
0
 42
1
  0
SEQEND
  8
1
  0
ENDBLK
  8
0
  0
BLOCK
  8
0
  2
TRICONCIRCLE
 70
0
 10
0
 20
0
  0
CIRCLE
  8
1
 10
0
 20
0
 40
0.5
  0
ENDBLK
  8
0
  0
BLOCK
  8
0
  2
LCBP0
 70
0
 10
0
 20
0
  0
LINE
  8
1
 10
0
 20
-0.46875
 11
0
 21
0.46875
  0
ENDBLK
  8
0
  0
BLOCK
  8
0
  2
LCBP1
 70
0
 10
0
 20
0
  0
LINE
  8
1
 10
0
 20
-0.625
 11
0
 21
0.625
  0
ENDBLK
  8
0
  0
BLOCK
  8
0
  2
LCBP2
 70
0
 10
0
 20
0
  0
LINE
  8
1
 10
0
 20
-0.9375
 11
0
 21
0.9375
  0
ENDBLK
  8
0
  0
BLOCK
  8
0
  2
LCA1
 70
0
 10
0
 20
0
  0
SOLID
  8
1
 62
7 
 10
0
 20
0
 11
-1.4
 21
-0.275
 12
-1.4
 22
0.275
 13
-1.4
 23
0.275
  0
ENDBLK
  8
0
  0
BLOCK
  8
0
  2
LCA2
 70
0
 10
0
 20
0
  0
SOLID
  8
1
 62
7 
 10
0
 20
0
 11
-1.65
 21
-0.525
 12
-1.65
 22
0.525
 13
-1.65
 23
0.525
  0
ENDBLK
  8
0
  0
BLOCK
  8
0
  2
LCA3
 70
0
 10
0
 20
0
  0
SOLID
  8
1
 62
7 
 10
0
 20
0
 11
-2.15
 21
-1.15
 12
-2.15
 22
1.15
 13
-2.15
 23
1.15
  0
ENDBLK
  8
0
  0
BLOCK
  8
0
  2
LCA1R
 70
0
 10
0
 20
0
  0
SOLID
  8
1
 62
7 
 10
0
 20
0
 11
1.4
 21
-0.275
 12
1.4
 22
0.275
 13
1.4
 23
0.275
  0
ENDBLK
  8
0
  0
BLOCK
  8
0
  2
LCA2R
 70
0
 10
0
 20
0
  0
SOLID
  8
1
 62
7 
 10
0
 20
0
 11
1.65
 21
-0.525
 12
1.65
 22
0.525
 13
1.65
 23
0.525
  0
ENDBLK
  8
0
  0
BLOCK
  8
0
  2
LCA3R
 70
0
 10
0
 20
0
  0
SOLID
  8
1
 62
7 
 10
0
 20
0
 11
2.15
 21
-1.15
 12
2.15
 22
1.15
 13
2.15
 23
1.15
  0
ENDBLK
  8
0
  0
BLOCK
  8
0
  2
B3647_00995793
 70
0
 10
0
 20
0
  0
POLYLINE
  8
1
 66
1
  0
VERTEX
  8
1
 10
-5.92792288462321
 20
30
  0
VERTEX
  8
1
 10
-13.9279228846232
 20
22
  0
VERTEX
  8
1
 10
-13.9279228846232
 20
-30
  0
VERTEX
  8
1
 10
-9.92792288462321
 20
-30
  0
SEQEND
  8
1
  0
POLYLINE
  8
1
 66
1
  0
VERTEX
  8
1
 10
6.07207711537679
 20
30
  0
VERTEX
  8
1
 10
14.0720771153768
 20
22
  0
VERTEX
  8
1
 10
14.0720771153768
 20
-30
  0
VERTEX
  8
1
 10
10.0720771153768
 20
-30
  0
SEQEND
  8
1
  0
POLYLINE
  8
1
 66
1
  0
VERTEX
  8
1
 10
-23.9279228846232
 20
-40
  0
VERTEX
  8
1
 10
-23.9279228846232
 20
32
  0
VERTEX
  8
1
 10
-15.9279228846232
 20
40
  0
VERTEX
  8
1
 10
16.0720771153768
 20
40
  0
VERTEX
  8
1
 10
24.0720771153768
 20
32
  0
VERTEX
  8
1
 10
24.0720771153768
 20
-40
  0
VERTEX
  8
1
 10
-23.9279228846232
 20
-40
  0
SEQEND
  8
1
  0
SOLID
  8
1
 10
5.07207711537679
 20
-12
 11
7.07207711537679
 21
-12
 12
5.07207711537679
 22
-20
 13
7.07207711537679
 23
-20
  0
SOLID
  8
1
 10
7.07207711537679
 20
-20
 11
5.07207711537679
 21
-20
 12
5.07207711537679
 22
-20
 13
5.07207711537679
 23
-12
  0
SOLID
  8
1
 10
5.07207711537679
 20
2
 11
7.07207711537679
 21
2
 12
5.07207711537679
 22
-6
 13
7.07207711537679
 23
-6
  0
SOLID
  8
1
 10
7.07207711537679
 20
-6
 11
5.07207711537679
 21
-6
 12
5.07207711537679
 22
-6
 13
5.07207711537679
 23
2
  0
SOLID
  8
1
 10
5.07207711537679
 20
16
 11
7.07207711537679
 21
16
 12
5.07207711537679
 22
8
 13
7.07207711537679
 23
8
  0
SOLID
  8
1
 10
7.07207711537679
 20
8
 11
5.07207711537679
 21
8
 12
5.07207711537679
 22
8
 13
5.07207711537679
 23
16
  0
SOLID
  8
1
 10
-6.92792288462321
 20
-12
 11
-4.92792288462321
 21
-12
 12
-6.92792288462321
 22
-20
 13
-4.92792288462321
 23
-20
  0
SOLID
  8
1
 10
-4.92792288462321
 20
-20
 11
-6.92792288462321
 21
-20
 12
-6.92792288462321
 22
-20
 13
-6.92792288462321
 23
-12
  0
SOLID
  8
1
 10
-6.92792288462321
 20
2
 11
-4.92792288462321
 21
2
 12
-6.92792288462321
 22
-6
 13
-4.92792288462321
 23
-6
  0
SOLID
  8
1
 10
-4.92792288462321
 20
-6
 11
-6.92792288462321
 21
-6
 12
-6.92792288462321
 22
-6
 13
-6.92792288462321
 23
2
  0
SOLID
  8
1
 10
-6.92792288462321
 20
16
 11
-4.92792288462321
 21
16
 12
-6.92792288462321
 22
8
 13
-4.92792288462321
 23
8
  0
SOLID
  8
1
 10
-4.92792288462321
 20
8
 11
-6.92792288462321
 21
8
 12
-6.92792288462321
 22
8
 13
-6.92792288462321
 23
16
  0
POLYLINE
  8
1
 66
1
  0
VERTEX
  8
1
 10
-2.92792288462321
 20
18
  0
VERTEX
  8
1
 10
3.07207711537679
 20
18
  0
VERTEX
  8
1
 10
3.07207711537679
 20
-22
  0
VERTEX
  8
1
 10
-2.92792288462321
 20
-22
  0
VERTEX
  8
1
 10
-2.92792288462321
 20
18
  0
SEQEND
  8
1
  0
LINE
  8
1
 10
10.0720771153768
 20
-34
 11
6.07207711537679
 21
-34
  0
LINE
  8
1
 10
10.0720771153768
 20
-30
 11
10.0720771153768
 21
-34
  0
LINE
  8
1
 10
-9.92792288462321
 20
-34
 11
-5.92792288462321
 21
-34
  0
LINE
  8
1
 10
-9.92792288462321
 20
-30
 11
-9.92792288462321
 21
-34
  0
LINE
  8
1
 10
6.07207711537679
 20
-34
 11
6.07207711537679
 21
-40
  0
LINE
  8
1
 10
-5.92792288462321
 20
-34
 11
-5.92792288462321
 21
-40
  0
LINE
  8
1
 10
6.07207711537679
 20
40
 11
6.07207711537679
 21
30
  0
LINE
  8
1
 10
-5.92792288462321
 20
40
 11
-5.92792288462321
 21
30
  0
TEXT
  8
1
 40
6.3
 41
0.75
  1
1
  7
STANDARD
 73
2
 10
24.0720771153768
 20
-15.8242197036743
 11
24.0720771153768
 21
-15.8242197036743
  0
TEXT
  8
1
 40
6.3
 41
0.75
  1
2
  7
STANDARD
 72
2
 73
2
 10
-23.9748551050822
 20
-16.1757802963257
 11
-23.9748551050822
 21
-16.1757802963257
  0
TEXT
  8
1
 40
6.3
 41
0.75
  1
3
  7
STANDARD
 73
2
 10
24.0720771153768
 20
-2.17578029632569
 11
24.0720771153768
 21
-2.17578029632569
  0
TEXT
  8
1
 40
6.3
 41
0.75
  1
4
  7
STANDARD
 72
2
 73
2
 10
-23.9748551050822
 20
-2.17578029632569
 11
-23.9748551050822
 21
-2.17578029632569
  0
TEXT
  8
1
 40
6.3
 41
0.75
  1
6
  7
STANDARD
 72
2
 73
2
 10
-23.9748551050822
 20
11.8242197036743
 11
-23.9748551050822
 21
11.8242197036743
  0
TEXT
  8
1
 40
6.3
 41
0.75
  1
5
  7
STANDARD
 73
2
 10
24.0720771153768
 20
11.8242197036743
 11
24.0720771153768
 21
11.8242197036743
  0
ENDBLK
  8
0
  0
ENDSEC
  0
SECTION
  2
ENTITIES
  0
INSERT
  8
1
  2
B3647_00995793
 10
32.6697613398234
 20
40
  0
ENDSEC
  0
EOF
