  0
SECTION
  2
HEADER
  9
$LIMMIN
 10
0
 20
0
  9
$LIMMAX
 10
52.5
 20
74.25
  9
$EXTMIN
 10
0
 20
76
  9
$EXTMAX
 10
0
 20
54.329628944397
  0
ENDSEC
  0
SECTION
  2
TABLES
  0
TABLE
  2
LTYPE
 70
9
  0
LTYPE
  2
CONTINUOUS
 70
64
  3
Solid line
 72
65
 73
0
 40
0
  0
LTYPE
  2
DASHED
 70
64
  3
__ __ __ __ __ __ __ __ __
 72
65
 73
2
 40
0.75
 49
0.5
 49
-0.25
  0
LTYPE
  2
DOT
 70
64
  3
...........................
 72
65
 73
2
 40
0.25
 49
0
 49
-0.25
  0
LTYPE
  2
DASHDOT
 70
64
  3
__ . __ . __ . __ . __ . __ . 
 72
65
 73
4
 40
1
 49
0.5
 49
-0.25
 49
0
 49
-0.25
  0
ENDTAB
  0
TABLE
  2
LAYER
 70
10
  0
LAYER
  2
1
 70
0
 62
7
  6
CONTINUOUS
  0
LAYER
  2
CONNECTIONS
 70
0
 62
-7
  6
CONTINUOUS
  0
ENDTAB
  0
ENDSEC
  0
SECTION
  2
BLOCKS
  0
BLOCK
  8
0
  2
TRICON
 70
0
 10
0
 20
0
  0
POLYLINE
  8
1
 70
1
 66
1
 40
0.5
 41
0.5
  0
VERTEX
  8
1
 10
-0.25
 20
0
 42
1
  0
VERTEX
  8
1
 10
0.25
 20
0
 42
1
  0
SEQEND
  8
1
  0
ENDBLK
  8
0
  0
BLOCK
  8
0
  2
TRICONSMALL
 70
0
 10
0
 20
0
  0
POLYLINE
  8
1
 70
1
 66
1
 40
0.25
 41
0.25
  0
VERTEX
  8
1
 10
-0.125
 20
0
 42
1
  0
VERTEX
  8
1
 10
0.125
 20
0
 42
1
  0
SEQEND
  8
1
  0
ENDBLK
  8
0
  0
BLOCK
  8
0
  2
TRICONCIRCLE
 70
0
 10
0
 20
0
  0
CIRCLE
  8
1
 10
0
 20
0
 40
0.5
  0
ENDBLK
  8
0
  0
BLOCK
  8
0
  2
LCBP0
 70
0
 10
0
 20
0
  0
LINE
  8
1
 10
0
 20
-0.46875
 11
0
 21
0.46875
  0
ENDBLK
  8
0
  0
BLOCK
  8
0
  2
LCBP1
 70
0
 10
0
 20
0
  0
LINE
  8
1
 10
0
 20
-0.625
 11
0
 21
0.625
  0
ENDBLK
  8
0
  0
BLOCK
  8
0
  2
LCBP2
 70
0
 10
0
 20
0
  0
LINE
  8
1
 10
0
 20
-0.9375
 11
0
 21
0.9375
  0
ENDBLK
  8
0
  0
BLOCK
  8
0
  2
LCA1
 70
0
 10
0
 20
0
  0
SOLID
  8
1
 62
7 
 10
0
 20
0
 11
-1.4
 21
-0.275
 12
-1.4
 22
0.275
 13
-1.4
 23
0.275
  0
ENDBLK
  8
0
  0
BLOCK
  8
0
  2
LCA2
 70
0
 10
0
 20
0
  0
SOLID
  8
1
 62
7 
 10
0
 20
0
 11
-1.65
 21
-0.525
 12
-1.65
 22
0.525
 13
-1.65
 23
0.525
  0
ENDBLK
  8
0
  0
BLOCK
  8
0
  2
LCA3
 70
0
 10
0
 20
0
  0
SOLID
  8
1
 62
7 
 10
0
 20
0
 11
-2.15
 21
-1.15
 12
-2.15
 22
1.15
 13
-2.15
 23
1.15
  0
ENDBLK
  8
0
  0
BLOCK
  8
0
  2
LCA1R
 70
0
 10
0
 20
0
  0
SOLID
  8
1
 62
7 
 10
0
 20
0
 11
1.4
 21
-0.275
 12
1.4
 22
0.275
 13
1.4
 23
0.275
  0
ENDBLK
  8
0
  0
BLOCK
  8
0
  2
LCA2R
 70
0
 10
0
 20
0
  0
SOLID
  8
1
 62
7 
 10
0
 20
0
 11
1.65
 21
-0.525
 12
1.65
 22
0.525
 13
1.65
 23
0.525
  0
ENDBLK
  8
0
  0
BLOCK
  8
0
  2
LCA3R
 70
0
 10
0
 20
0
  0
SOLID
  8
1
 62
7 
 10
0
 20
0
 11
2.15
 21
-1.15
 12
2.15
 22
1.15
 13
2.15
 23
1.15
  0
ENDBLK
  8
0
  0
BLOCK
  8
0
  2
B196484_00995782
 70
0
 10
0
 20
0
  0
TEXT
  8
1
 40
2.4
 41
0.75
  1
Altes Layout, nicht mehr verwenden!!!
  7
STANDARD
 72
1
 73
2
 10
3
 20
24.8351853688558
 11
3
 21
24.8351853688558
  0
POLYLINE
  8
1
 66
1
  0
VERTEX
  8
1
 10
-38
 20
13.8351853688558
  0
VERTEX
  8
1
 10
38
 20
13.8351853688558
  0
VERTEX
  8
1
 10
38
 20
-24.1648146311442
  0
VERTEX
  8
1
 10
-38
 20
-24.1648146311442
  0
VERTEX
  8
1
 10
-38
 20
13.8351853688558
  0
SEQEND
  8
1
  0
TEXT
  8
1
 40
2.4749997138977
 41
0.75
  1
12/14
  7
STANDARD
 72
2
 10
-13.9353136698405
 20
-18.2273147741953
 11
-13.9353136698405
 21
-18.2273147741953
  0
TEXT
  8
1
 40
2.475
 41
0.75
  1
1
  7
STANDARD
 73
3
 10
14.6000006357829
 20
-24.5390988032023
 11
14.6000006357829
 21
-24.5390988032023
  0
TEXT
  8
1
 40
2.475
 41
0.75
  1
3
  7
STANDARD
 73
3
 10
22.6347783406576
 20
-24.5390988032023
 11
22.6347783406576
 21
-24.5390988032023
  0
TEXT
  8
1
 40
2.475
 41
0.75
  1
2(1)
  7
STANDARD
 10
22.0000006357829
 20
15.2726853688558
  0
TEXT
  8
1
 40
2.475
 41
0.75
  1
(14)4
  7
STANDARD
 72
2
 10
13.7652216593424
 20
15.2726853688558
 11
13.7652216593424
 21
15.2726853688558
  0
LINE
  8
1
 10
22
 20
17.8351853688558
 11
22
 21
13.8351853688558
  0
LINE
  8
1
 10
14
 20
17.8351853688558
 11
14
 21
13.8351853688558
  0
LINE
  8
1
 10
14
 20
-23.1648146311442
 11
14
 21
-27.1648146311442
  0
LINE
  8
1
 10
22
 20
-23.1648146311442
 11
22
 21
-27.1648146311442
  0
LINE
  8
1
 10
34
 20
13.8351853688558
 11
34
 21
15.8351853688558
  0
INSERT
  8
1
  2
LCBP1
 10
34
 20
15.8351853688558
 50
90
  0
LINE
  8
1
 10
34
 20
9.8351853688558
 11
34
 21
13.8351853688558
  0
POLYLINE
  8
1
 70
1
 66
1
 40
0.5
 41
0.5
  0
VERTEX
  8
1
 10
21.75
 20
9.8351853688558
 42
1
  0
VERTEX
  8
1
 10
22.25
 20
9.8351853688558
 42
1
  0
SEQEND
  8
1
  0
LINE
  8
1
 10
22
 20
9.8351853688558
 11
34
 21
9.8351853688558
  0
POLYLINE
  8
1
 66
1
  0
VERTEX
  8
1
 10
-22
 20
-10.1648146311442
  0
VERTEX
  8
1
 10
-33
 20
-10.1648146311442
  0
VERTEX
  8
1
 10
-33
 20
-0.164814631144196
  0
VERTEX
  8
1
 10
-31
 20
-0.164814631144196
  0
SEQEND
  8
1
  0
POLYLINE
  8
1
 66
1
  0
VERTEX
  8
1
 10
-23
 20
-0.164814631144196
  0
VERTEX
  8
1
 10
10
 20
-0.164814631144196
  0
VERTEX
  8
1
 10
10
 20
-4.1648146311442
  0
SEQEND
  8
1
  0
LINE
  8
1
 10
14
 20
-4.1648146311442
 11
14
 21
13.8351853688558
  0
LINE
  8
1
 10
22
 20
-4.1648146311442
 11
22
 21
13.8351853688558
  0
LINE
  8
1
 10
14
 20
-23.1648146311442
 11
14
 21
-12.1648146311442
  0
LINE
  8
1
 10
22
 20
-23.1648146311442
 11
22
 21
-12.1648146311442
  0
POLYLINE
  8
1
 66
1
  0
VERTEX
  8
1
 10
18
 20
-12.1648146311442
  0
VERTEX
  8
1
 10
18
 20
-16.1648146311442
  0
VERTEX
  8
1
 10
14
 20
-16.1648146311442
  0
SEQEND
  8
1
  0
POLYLINE
  8
1
 70
1
 66
1
 40
0.5
 41
0.5
  0
VERTEX
  8
1
 10
13.75
 20
-16.1648146311442
 42
1
  0
VERTEX
  8
1
 10
14.25
 20
-16.1648146311442
 42
1
  0
SEQEND
  8
1
  0
LINE
  8
1
  6
DOT
 10
-6
 20
-20.1648146311442
 11
10
 21
-20.1648146311442
  0
LINE
  8
1
  6
DOT
 10
10
 20
-20.1648146311442
 11
14
 21
-16.1648146311442
  0
LINE
  8
1
  6
DOT
 10
-6
 20
-18.1648146311442
 11
-6
 21
-20.1648146311442
  0
LINE
  8
1
  6
DOT
 10
12
 20
-18.1648146311442
 11
11
 21
-19.1648146311442
  0
CIRCLE
  8
1
 10
29
 20
6.5851853688558
 40
0.75
  0
LINE
  8
1
 10
28.5
 20
5.8351853688558
 11
30
 21
5.8351853688558
  0
LINE
  8
1
 10
24
 20
-2.1648146311442
 11
24
 21
-4.1648146311442
  0
POLYLINE
  8
1
 66
1
  0
VERTEX
  8
1
 10
23.25
 20
6.5851853688558
  0
VERTEX
  8
1
 10
24.75
 20
6.5851853688558
  0
VERTEX
  8
1
 10
25.5
 20
5.8351853688558
  0
VERTEX
  8
1
 10
28.5
 20
5.8351853688558
  0
SEQEND
  8
1
  0
POLYLINE
  8
1
 66
1
  0
VERTEX
  8
1
 10
24
 20
3.8351853688558
  0
VERTEX
  8
1
 10
30
 20
3.8351853688558
  0
VERTEX
  8
1
 10
30
 20
-2.1648146311442
  0
VERTEX
  8
1
 10
24
 20
-2.1648146311442
  0
VERTEX
  8
1
 10
24
 20
3.8351853688558
  0
SEQEND
  8
1
  0
LINE
  8
1
 10
27.85
 20
0.835185368855804
 11
28.85
 21
0.835185368855804
  0
POLYLINE
  8
1
 66
1
  0
VERTEX
  8
1
 10
25.15
 20
0.835185368855804
  0
VERTEX
  8
1
 10
26.15
 20
0.835185368855804
  0
VERTEX
  8
1
 10
28.65
 20
1.8351853688558
  0
SEQEND
  8
1
  0
LINE
  8
1
 10
-16
 20
-4.6648146311442
 11
-12
 21
-4.6648146311442
  0
LINE
  8
1
 10
-16
 20
-4.1648146311442
 11
-16
 21
-7.1648146311442
  0
LINE
  8
1
 10
-16
 20
-6.6648146311442
 11
-12
 21
-6.6648146311442
  0
POLYLINE
  8
1
 66
1
  0
VERTEX
  8
1
 10
29
 20
-10.1648146311442
  0
VERTEX
  8
1
 10
28.5833333333333
 20
-12.1648146311442
  0
VERTEX
  8
1
 10
27.75
 20
-8.1648146311442
  0
VERTEX
  8
1
 10
26.9166666666668
 20
-12.1648146311442
  0
VERTEX
  8
1
 10
26.0833333333332
 20
-8.1648146311442
  0
VERTEX
  8
1
 10
25.25
 20
-12.1648146311442
  0
VERTEX
  8
1
 10
24.4166666666668
 20
-8.1648146311442
  0
VERTEX
  8
1
 10
24
 20
-10.1648146311442
  0
SEQEND
  8
1
  0
LINE
  8
1
 10
-10
 20
-18.1648146311442
 11
-8
 21
-14.1648146311442
  0
POLYLINE
  8
1
 66
1
  0
VERTEX
  8
1
 10
-12
 20
-14.1648146311442
  0
VERTEX
  8
1
 10
-6
 20
-14.1648146311442
  0
VERTEX
  8
1
 10
-6
 20
-18.1648146311442
  0
VERTEX
  8
1
 10
-12
 20
-18.1648146311442
  0
VERTEX
  8
1
 10
-12
 20
-14.1648146311442
  0
SEQEND
  8
1
  0
LINE
  8
1
 10
0
 20
-12.1648146311442
 11
0
 21
-14.1648146311442
  0
LINE
  8
1
 10
-6
 20
-14.1648146311442
 11
-6
 21
-18.1648146311442
  0
LINE
  8
1
 10
-6
 20
-14.1648146311442
 11
-2.53589838486225
 21
-16.1648146311442
  0
LINE
  8
1
 10
-6
 20
-18.1648146311442
 11
-2.53589838486225
 21
-16.1648146311442
  0
POLYLINE
  8
1
 66
1
  0
VERTEX
  8
1
 10
-6
 20
-14.1648146311442
  0
VERTEX
  8
1
 10
0
 20
-14.1648146311442
  0
VERTEX
  8
1
 10
0
 20
-18.1648146311442
  0
VERTEX
  8
1
 10
-6
 20
-18.1648146311442
  0
VERTEX
  8
1
 10
-6
 20
-14.1648146311442
  0
SEQEND
  8
1
  0
LINE
  8
1
 10
-15.9999999999931
 20
-10.1648146311442
 11
-12
 21
-10.1648146311442
  0
LINE
  8
1
 10
-19.4640885929621
 20
-10.1648071127916
 11
-22
 21
-10.1648071127916
  0
LINE
  8
1
 10
-19.4640885929621
 20
-8.16480711279162
 11
-19.4640885929621
 21
-12.1648071127916
  0
LINE
  8
1
 10
-19.4640885929621
 20
-8.16480711279162
 11
-15.9999869778244
 21
-10.1648071127916
  0
LINE
  8
1
 10
-19.4640885929621
 20
-12.1648071127916
 11
-15.9999869778244
 21
-10.1648071127916
  0
POLYLINE
  8
1
 66
1
  0
VERTEX
  8
1
 10
-31
 20
4.8351853688558
  0
VERTEX
  8
1
 10
-33
 20
3.8351853688558
  0
VERTEX
  8
1
 10
-31
 20
2.8351853688558
  0
SEQEND
  8
1
  0
LINE
  8
1
 10
-33.4425978826423
 20
7.10554908318584
 11
-24.5571264213402
 21
9.56489796254101
  0
INSERT
  8
1
  2
LCA1
 10
-24.5571264213402
 20
9.56489796254101
 50
15.4711922908485
  0
POLYLINE
  8
1
 66
1
  0
VERTEX
  8
1
 10
-28.9998889119004
 20
5.8352085122099
  0
VERTEX
  8
1
 10
-26.9998889119004
 20
6.25187517887661
  0
VERTEX
  8
1
 10
-30.9998889119004
 20
7.0852085122099
  0
VERTEX
  8
1
 10
-26.9998889119004
 20
7.91854184554328
  0
VERTEX
  8
1
 10
-30.9998889119004
 20
8.7518751788766
  0
VERTEX
  8
1
 10
-26.9998889119004
 20
9.5852085122099
  0
VERTEX
  8
1
 10
-30.9998889119004
 20
10.4185418455432
  0
VERTEX
  8
1
 10
-28.9998889119004
 20
10.8352085122099
  0
SEQEND
  8
1
  0
POLYLINE
  8
1
  6
DOT
 66
1
  0
VERTEX
  8
1
 10
-29
 20
-2.1648146311442
  0
VERTEX
  8
1
 10
-29
 20
-6.1648146311442
  0
VERTEX
  8
1
 10
-21
 20
-6.1648146311442
  0
VERTEX
  8
1
 10
-21
 20
-2.1648146311442
  0
VERTEX
  8
1
 10
-23
 20
-0.164814631144196
  0
SEQEND
  8
1
  0
POLYLINE
  8
1
 66
1
  0
VERTEX
  8
1
 10
-31
 20
-2.1648146311442
  0
VERTEX
  8
1
 10
-23
 20
-2.1648146311442
  0
VERTEX
  8
1
 10
-23
 20
5.8351853688558
  0
VERTEX
  8
1
 10
-31
 20
5.8351853688558
  0
VERTEX
  8
1
 10
-31
 20
-2.1648146311442
  0
SEQEND
  8
1
  0
LINE
  8
1
 10
-23
 20
-0.164814631144196
 11
-31
 21
-0.164814631144196
  0
INSERT
  8
1
  2
LCA1
 10
-31
 20
-0.164814631144196
 50
-180
  0
INSERT
  8
1
  2
LCA1R
 10
-23
 20
-0.164814631144196
 50
-180
  0
LINE
  8
1
 10
14
 20
-8.1648146311442
 11
22
 21
-8.1648146311442
  0
POLYLINE
  8
1
 66
1
  0
VERTEX
  8
1
 10
14
 20
-4.1648146311442
  0
VERTEX
  8
1
 10
14
 20
-8.1648146311442
  0
SEQEND
  8
1
  0
POLYLINE
  8
1
 70
1
 66
1
 40
0.5
 41
0.5
  0
VERTEX
  8
1
 10
21.75
 20
-8.1648146311442
 42
1
  0
VERTEX
  8
1
 10
22.25
 20
-8.1648146311442
 42
1
  0
SEQEND
  8
1
  0
LINE
  8
1
 10
14
 20
-12.1648146311442
 11
14
 21
-10.1648146311442
  0
INSERT
  8
1
  2
LCBP1
 10
14
 20
-10.1648146311442
 50
90
  0
LINE
  8
1
 10
18
 20
-12.1648146311442
 11
18
 21
-10.1648146311442
  0
INSERT
  8
1
  2
LCBP1
 10
18
 20
-10.1648146311442
 50
90
  0
POLYLINE
  8
1
 66
1
  0
VERTEX
  8
1
 10
12
 20
-4.1648146311442
  0
VERTEX
  8
1
 10
24
 20
-4.1648146311442
  0
VERTEX
  8
1
 10
24
 20
-12.1648146311442
  0
VERTEX
  8
1
 10
12
 20
-12.1648146311442
  0
VERTEX
  8
1
 10
12
 20
-4.1648146311442
  0
SEQEND
  8
1
  0
LINE
  8
1
 10
22
 20
-4.1648146311442
 11
22
 21
-12.1648146311442
  0
INSERT
  8
1
  2
LCA1
 10
22
 20
-12.1648146311442
 50
-90
  0
LINE
  8
1
 10
2
 20
-4.1648146311442
 11
2
 21
-12.1648146311442
  0
INSERT
  8
1
  2
LCA1R
 10
2
 20
-4.1648146311442
 50
-90
  0
LINE
  8
1
 10
9.01219182440098
 20
-10.9820624738638
 11
5.89158408425433
 21
-5.48098918475583
  0
INSERT
  8
1
  2
LCA1
 10
5.89158408425433
 20
-5.48098918475583
 50
119.565051177078
  0
ARC
  8
1
 10
-1.04419784982563
 20
-3.75919722553029
 40
9
 50
313.962596800055
 51
352.905050579339
  0
ARC
  8
1
 10
16.8441978498256
 20
-12.7037653700914
 40
9
 50
133.96265870751
 51
172.90539531546
  0
LINE
  8
1
 10
6
 20
-12.1648146311442
 11
10
 21
-4.1648146311442
  0
INSERT
  8
1
  2
LCA1
 10
10
 20
-4.1648146311442
 50
63.434948822922
  0
LINE
  8
1
 10
10
 20
-12.1648146311442
 11
10
 21
-10.1648146311442
  0
INSERT
  8
1
  2
LCBP1
 10
10
 20
-10.1648146311442
 50
90
  0
POLYLINE
  8
1
 66
1
  0
VERTEX
  8
1
 10
0
 20
-4.1648146311442
  0
VERTEX
  8
1
 10
12
 20
-4.1648146311442
  0
VERTEX
  8
1
 10
12
 20
-12.1648146311442
  0
VERTEX
  8
1
 10
0
 20
-12.1648146311442
  0
VERTEX
  8
1
 10
0
 20
-4.1648146311442
  0
SEQEND
  8
1
  0
LINE
  8
1
 10
-10
 20
-4.1648146311442
 11
-10
 21
-12.1648146311442
  0
INSERT
  8
1
  2
LCA1R
 10
-10
 20
-4.1648146311442
 50
-90
  0
LINE
  8
1
 10
-6
 20
-12.1648146311442
 11
-2
 21
-4.1648146311442
  0
INSERT
  8
1
  2
LCA1
 10
-2
 20
-4.1648146311442
 50
63.434948822922
  0
LINE
  8
1
 10
-2
 20
-12.1648146311442
 11
-2
 21
-10.1648146311442
  0
INSERT
  8
1
  2
LCBP1
 10
-2
 20
-10.1648146311442
 50
90
  0
POLYLINE
  8
1
 66
1
  0
VERTEX
  8
1
 10
-12
 20
-4.1648146311442
  0
VERTEX
  8
1
 10
0
 20
-4.1648146311442
  0
VERTEX
  8
1
 10
0
 20
-12.1648146311442
  0
VERTEX
  8
1
 10
-12
 20
-12.1648146311442
  0
VERTEX
  8
1
 10
-12
 20
-4.1648146311442
  0
SEQEND
  8
1
  0
CIRCLE
  8
CONNECTIONS
 10
-11.8576241175334
 20
-16.1925820350647
 40
0
  0
CIRCLE
  8
CONNECTIONS
 10
14
 20
17.8351853688558
 40
0
  0
CIRCLE
  8
CONNECTIONS
 10
14
 20
-27.1648146311442
 40
0
  0
CIRCLE
  8
CONNECTIONS
 10
22
 20
-27.1648146311442
 40
0
  0
CIRCLE
  8
CONNECTIONS
 10
22
 20
17.8351853688558
 40
0
  0
CIRCLE
  8
CONNECTIONS
 10
-12
 20
-10.1648146311442
 40
0
  0
ENDBLK
  8
0
  0
ENDSEC
  0
SECTION
  2
ENTITIES
  0
INSERT
  8
1
  2
B196484_00995782
 10
38
 20
27.1648146311442
  0
ENDSEC
  0
EOF
