  0
SECTION
  2
HEADER
  9
$LIMMIN
 10
0
 20
0
  9
$LIMMAX
 10
52.5
 20
74.25
  9
$EXTMIN
 10
0
 20
36.7323431650798
  9
$EXTMAX
 10
0
 20
17
  0
ENDSEC
  0
SECTION
  2
TABLES
  0
TABLE
  2
LTYPE
 70
9
  0
LTYPE
  2
CONTINUOUS
 70
64
  3
Solid line
 72
65
 73
0
 40
0
  0
LTYPE
  2
DASHED
 70
64
  3
__ __ __ __ __ __ __ __ __
 72
65
 73
2
 40
0.75
 49
0.5
 49
-0.25
  0
LTYPE
  2
DOT
 70
64
  3
...........................
 72
65
 73
2
 40
0.25
 49
0
 49
-0.25
  0
LTYPE
  2
DASHDOT
 70
64
  3
__ . __ . __ . __ . __ . __ . 
 72
65
 73
4
 40
1
 49
0.5
 49
-0.25
 49
0
 49
-0.25
  0
ENDTAB
  0
TABLE
  2
LAYER
 70
10
  0
LAYER
  2
1
 70
0
 62
7
  6
CONTINUOUS
  0
LAYER
  2
CONNECTIONS
 70
0
 62
-7
  6
CONTINUOUS
  0
ENDTAB
  0
ENDSEC
  0
SECTION
  2
BLOCKS
  0
BLOCK
  8
0
  2
TRICON
 70
0
 10
0
 20
0
  0
POLYLINE
  8
1
 70
1
 66
1
 40
0.5
 41
0.5
  0
VERTEX
  8
1
 10
-0.25
 20
0
 42
1
  0
VERTEX
  8
1
 10
0.25
 20
0
 42
1
  0
SEQEND
  8
1
  0
ENDBLK
  8
0
  0
BLOCK
  8
0
  2
TRICONSMALL
 70
0
 10
0
 20
0
  0
POLYLINE
  8
1
 70
1
 66
1
 40
0.25
 41
0.25
  0
VERTEX
  8
1
 10
-0.125
 20
0
 42
1
  0
VERTEX
  8
1
 10
0.125
 20
0
 42
1
  0
SEQEND
  8
1
  0
ENDBLK
  8
0
  0
BLOCK
  8
0
  2
TRICONCIRCLE
 70
0
 10
0
 20
0
  0
CIRCLE
  8
1
 10
0
 20
0
 40
0.5
  0
ENDBLK
  8
0
  0
BLOCK
  8
0
  2
LCBP0
 70
0
 10
0
 20
0
  0
LINE
  8
1
 10
0
 20
-0.46875
 11
0
 21
0.46875
  0
ENDBLK
  8
0
  0
BLOCK
  8
0
  2
LCBP1
 70
0
 10
0
 20
0
  0
LINE
  8
1
 10
0
 20
-0.625
 11
0
 21
0.625
  0
ENDBLK
  8
0
  0
BLOCK
  8
0
  2
LCBP2
 70
0
 10
0
 20
0
  0
LINE
  8
1
 10
0
 20
-0.9375
 11
0
 21
0.9375
  0
ENDBLK
  8
0
  0
BLOCK
  8
0
  2
LCA1
 70
0
 10
0
 20
0
  0
SOLID
  8
1
 62
7 
 10
0
 20
0
 11
-1.4
 21
-0.275
 12
-1.4
 22
0.275
 13
-1.4
 23
0.275
  0
ENDBLK
  8
0
  0
BLOCK
  8
0
  2
LCA2
 70
0
 10
0
 20
0
  0
SOLID
  8
1
 62
7 
 10
0
 20
0
 11
-1.65
 21
-0.525
 12
-1.65
 22
0.525
 13
-1.65
 23
0.525
  0
ENDBLK
  8
0
  0
BLOCK
  8
0
  2
LCA3
 70
0
 10
0
 20
0
  0
SOLID
  8
1
 62
7 
 10
0
 20
0
 11
-2.15
 21
-1.15
 12
-2.15
 22
1.15
 13
-2.15
 23
1.15
  0
ENDBLK
  8
0
  0
BLOCK
  8
0
  2
LCA1R
 70
0
 10
0
 20
0
  0
SOLID
  8
1
 62
7 
 10
0
 20
0
 11
1.4
 21
-0.275
 12
1.4
 22
0.275
 13
1.4
 23
0.275
  0
ENDBLK
  8
0
  0
BLOCK
  8
0
  2
LCA2R
 70
0
 10
0
 20
0
  0
SOLID
  8
1
 62
7 
 10
0
 20
0
 11
1.65
 21
-0.525
 12
1.65
 22
0.525
 13
1.65
 23
0.525
  0
ENDBLK
  8
0
  0
BLOCK
  8
0
  2
LCA3R
 70
0
 10
0
 20
0
  0
SOLID
  8
1
 62
7 
 10
0
 20
0
 11
2.15
 21
-1.15
 12
2.15
 22
1.15
 13
2.15
 23
1.15
  0
ENDBLK
  8
0
  0
BLOCK
  8
0
  2
B65957_00995775
 70
0
 10
0
 20
0
  0
TEXT
  8
1
 40
2.4
 41
0.75
  1
12
  7
STANDARD
 10
-18.3661715825399
 20
4.72776740392049
  0
TEXT
  8
1
 40
2.7
 41
0.75
  1
3(4)
  7
STANDARD
 73
3
 10
8.96617158253987
 20
-6.975
 11
8.96617158253987
 21
-6.975
  0
TEXT
  8
1
 40
2.7
 41
0.75
  1
(2)1
  7
STANDARD
 72
2
 73
3
 10
3.86617158253988
 20
-6.975
 11
3.86617158253988
 21
-6.975
  0
TEXT
  8
1
 40
2.7
 41
0.75
  1
(14)2
  7
STANDARD
 72
2
 73
3
 10
3.86617158253987
 20
8.62500000000001
 11
3.86617158253987
 21
8.62500000000001
  0
LINE
  8
1
 10
8.36617158253987
 20
-4.5
 11
8.36617158253987
 21
-8.5
  0
LINE
  8
1
 10
4.36617158253987
 20
-4.5
 11
4.36617158253987
 21
-8.5
  0
LINE
  8
1
 10
4.36617158253987
 20
3.5
 11
4.36617158253987
 21
7.5
  0
LINE
  8
1
 10
4.36617158253987
 20
5.5
 11
12.3661715825399
 21
5.5
  0
POLYLINE
  8
1
 70
1
 66
1
 40
0.5
 41
0.5
  0
VERTEX
  8
1
 10
4.11617158253987
 20
5.5
 42
1
  0
VERTEX
  8
1
 10
4.61617158253987
 20
5.5
 42
1
  0
SEQEND
  8
1
  0
LINE
  8
1
 10
14.8661715825399
 20
7
 11
15.5661715825399
 21
7
  0
LINE
  8
1
 10
17.0161715825399
 20
7
 11
17.7161715825399
 21
7
  0
LINE
  8
1
 10
15.5661715825399
 20
7
 11
17.3661715825399
 21
7.7
  0
ARC
  8
1
 10
14.1161715825399
 20
4.5
 40
0.5
 50
270
 51
90
  0
LINE
  8
1
 10
14.1161715825399
 20
4
 11
13.3661715825399
 21
4
  0
LINE
  8
1
 10
13.3661715825399
 20
5
 11
14.1161715825399
 21
5
  0
LINE
  8
1
 10
13.3661715825399
 20
3.15
 11
13.3661715825399
 21
5
  0
POLYLINE
  8
1
 66
1
  0
VERTEX
  8
1
 10
12.3661715825399
 20
8.5
  0
VERTEX
  8
1
 10
18.3661715825399
 20
8.5
  0
VERTEX
  8
1
 10
18.3661715825399
 20
2.5
  0
VERTEX
  8
1
 10
12.3661715825399
 20
2.5
  0
VERTEX
  8
1
 10
12.3661715825399
 20
8.5
  0
SEQEND
  8
1
  0
LINE
  8
1
 10
12.3661715825399
 20
8.5
 11
18.3661715825399
 21
2.5
  0
POLYLINE
  8
1
 66
1
  0
VERTEX
  8
1
 10
15.3661715825399
 20
-2.5
  0
VERTEX
  8
1
 10
14.9495049158732
 20
-4.5
  0
VERTEX
  8
1
 10
14.1161715825399
 20
-0.5
  0
VERTEX
  8
1
 10
13.2828382492066
 20
-4.5
  0
VERTEX
  8
1
 10
12.4495049158732
 20
-0.5
  0
VERTEX
  8
1
 10
11.6161715825399
 20
-4.5
  0
VERTEX
  8
1
 10
10.7828382492066
 20
-0.5
  0
VERTEX
  8
1
 10
10.3661715825399
 20
-2.5
  0
SEQEND
  8
1
  0
LINE
  8
1
 10
-15.6338284174601
 20
-4.5
 11
-13.6338284174601
 21
-0.5
  0
POLYLINE
  8
1
 66
1
  0
VERTEX
  8
1
 10
-17.6338284174601
 20
-0.5
  0
VERTEX
  8
1
 10
-11.6338284174601
 20
-0.5
  0
VERTEX
  8
1
 10
-11.6338284174601
 20
-4.5
  0
VERTEX
  8
1
 10
-17.6338284174601
 20
-4.5
  0
VERTEX
  8
1
 10
-17.6338284174601
 20
-0.5
  0
SEQEND
  8
1
  0
LINE
  8
1
 10
-11.6338284174601
 20
-0.5
 11
-11.6338284174601
 21
-4.5
  0
POLYLINE
  8
1
 66
1
  0
VERTEX
  8
1
 10
-11.6338284174601
 20
-0.5
  0
VERTEX
  8
1
 10
-5.63382841746012
 20
-0.5
  0
VERTEX
  8
1
 10
-5.63382841746012
 20
-4.5
  0
VERTEX
  8
1
 10
-11.6338284174601
 20
-4.5
  0
VERTEX
  8
1
 10
-11.6338284174601
 20
-0.5
  0
SEQEND
  8
1
  0
LINE
  8
1
 10
-11.6338284174601
 20
-0.5
 11
-8.16972680232237
 21
-2.5
  0
LINE
  8
1
 10
-11.6338284174601
 20
-4.5
 11
-8.16972680232237
 21
-2.5
  0
LINE
  8
1
 10
-15.6338284174601
 20
3
 11
-11.6338284174601
 21
3
  0
LINE
  8
1
 10
-15.6338284174601
 20
3.5
 11
-15.6338284174601
 21
0.5
  0
LINE
  8
1
 10
-15.6338284174601
 20
1
 11
-11.6338284174601
 21
1
  0
LINE
  8
1
 10
-11.6338284174601
 20
-0.5
 11
-11.6338284174601
 21
3.5
  0
LINE
  8
1
 10
4.36617158253987
 20
-4.5
 11
4.36617158253987
 21
-2.5
  0
INSERT
  8
1
  2
LCBP1
 10
4.36617158253987
 20
-2.5
 50
90
  0
POLYLINE
  8
1
 66
1
  0
VERTEX
  8
1
 10
2.36617158253987
 20
3.5
  0
VERTEX
  8
1
 10
10.3661715825399
 20
3.5
  0
VERTEX
  8
1
 10
10.3661715825399
 20
-4.5
  0
VERTEX
  8
1
 10
2.36617158253987
 20
-4.5
  0
VERTEX
  8
1
 10
2.36617158253987
 20
3.5
  0
SEQEND
  8
1
  0
LINE
  8
1
 10
4.36617158253987
 20
3.5
 11
8.36617158253987
 21
-4.5
  0
INSERT
  8
1
  2
LCA1
 10
8.36617158253987
 20
-4.5
 50
-63.434948822922
  0
POLYLINE
  8
1
 66
1
  0
VERTEX
  8
1
 10
-5.63382841746012
 20
3.5
  0
VERTEX
  8
1
 10
2.36617158253988
 20
3.5
  0
VERTEX
  8
1
 10
2.36617158253988
 20
-4.5
  0
VERTEX
  8
1
 10
-5.63382841746012
 20
-4.5
  0
VERTEX
  8
1
 10
-5.63382841746012
 20
3.5
  0
SEQEND
  8
1
  0
LINE
  8
1
 10
0.366171582539875
 20
-4.5
 11
0.366171582539875
 21
-2.5
  0
INSERT
  8
1
  2
LCBP1
 10
0.366171582539875
 20
-2.5
 50
90
  0
LINE
  8
1
 10
-3.63382841746013
 20
-4.5
 11
-3.63382841746013
 21
3.5
  0
INSERT
  8
1
  2
LCA1
 10
-3.63382841746013
 20
3.5
 50
90
  0
CIRCLE
  8
CONNECTIONS
 10
-17.6490766525269
 20
-2.6
 40
0
  0
CIRCLE
  8
CONNECTIONS
 10
4.36617158253987
 20
7.5
 40
0
  0
CIRCLE
  8
CONNECTIONS
 10
4.36617158253987
 20
-8.5
 40
0
  0
CIRCLE
  8
CONNECTIONS
 10
8.36617158253987
 20
-8.5
 40
0
  0
ENDBLK
  8
0
  0
ENDSEC
  0
SECTION
  2
ENTITIES
  0
INSERT
  8
1
  2
B65957_00995775
 10
18.3661715825399
 20
8.5
  0
ENDSEC
  0
EOF
