  0
SECTION
  2
HEADER
  9
$LIMMIN
 10
0
 20
0
  9
$LIMMAX
 10
52.5
 20
74.25
  9
$EXTMIN
 10
0
 20
86
  9
$EXTMAX
 10
0
 20
66
  0
ENDSEC
  0
SECTION
  2
TABLES
  0
TABLE
  2
LTYPE
 70
9
  0
LTYPE
  2
CONTINUOUS
 70
64
  3
Solid line
 72
65
 73
0
 40
0
  0
LTYPE
  2
DASHED
 70
64
  3
__ __ __ __ __ __ __ __ __
 72
65
 73
2
 40
0.75
 49
0.5
 49
-0.25
  0
LTYPE
  2
DOT
 70
64
  3
...........................
 72
65
 73
2
 40
0.25
 49
0
 49
-0.25
  0
LTYPE
  2
DASHDOT
 70
64
  3
__ . __ . __ . __ . __ . __ . 
 72
65
 73
4
 40
1
 49
0.5
 49
-0.25
 49
0
 49
-0.25
  0
ENDTAB
  0
TABLE
  2
LAYER
 70
10
  0
LAYER
  2
1
 70
0
 62
7
  6
CONTINUOUS
  0
LAYER
  2
CONNECTIONS
 70
0
 62
-7
  6
CONTINUOUS
  0
ENDTAB
  0
ENDSEC
  0
SECTION
  2
BLOCKS
  0
BLOCK
  8
0
  2
TRICON
 70
0
 10
0
 20
0
  0
POLYLINE
  8
1
 70
1
 66
1
 40
0.5
 41
0.5
  0
VERTEX
  8
1
 10
-0.25
 20
0
 42
1
  0
VERTEX
  8
1
 10
0.25
 20
0
 42
1
  0
SEQEND
  8
1
  0
ENDBLK
  8
0
  0
BLOCK
  8
0
  2
TRICONSMALL
 70
0
 10
0
 20
0
  0
POLYLINE
  8
1
 70
1
 66
1
 40
0.25
 41
0.25
  0
VERTEX
  8
1
 10
-0.125
 20
0
 42
1
  0
VERTEX
  8
1
 10
0.125
 20
0
 42
1
  0
SEQEND
  8
1
  0
ENDBLK
  8
0
  0
BLOCK
  8
0
  2
TRICONCIRCLE
 70
0
 10
0
 20
0
  0
CIRCLE
  8
1
 10
0
 20
0
 40
0.5
  0
ENDBLK
  8
0
  0
BLOCK
  8
0
  2
LCBP0
 70
0
 10
0
 20
0
  0
LINE
  8
1
 10
0
 20
-0.46875
 11
0
 21
0.46875
  0
ENDBLK
  8
0
  0
BLOCK
  8
0
  2
LCBP1
 70
0
 10
0
 20
0
  0
LINE
  8
1
 10
0
 20
-0.625
 11
0
 21
0.625
  0
ENDBLK
  8
0
  0
BLOCK
  8
0
  2
LCBP2
 70
0
 10
0
 20
0
  0
LINE
  8
1
 10
0
 20
-0.9375
 11
0
 21
0.9375
  0
ENDBLK
  8
0
  0
BLOCK
  8
0
  2
LCA1
 70
0
 10
0
 20
0
  0
SOLID
  8
1
 62
7 
 10
0
 20
0
 11
-1.4
 21
-0.275
 12
-1.4
 22
0.275
 13
-1.4
 23
0.275
  0
ENDBLK
  8
0
  0
BLOCK
  8
0
  2
LCA2
 70
0
 10
0
 20
0
  0
SOLID
  8
1
 62
7 
 10
0
 20
0
 11
-1.65
 21
-0.525
 12
-1.65
 22
0.525
 13
-1.65
 23
0.525
  0
ENDBLK
  8
0
  0
BLOCK
  8
0
  2
LCA3
 70
0
 10
0
 20
0
  0
SOLID
  8
1
 62
7 
 10
0
 20
0
 11
-2.15
 21
-1.15
 12
-2.15
 22
1.15
 13
-2.15
 23
1.15
  0
ENDBLK
  8
0
  0
BLOCK
  8
0
  2
LCA1R
 70
0
 10
0
 20
0
  0
SOLID
  8
1
 62
7 
 10
0
 20
0
 11
1.4
 21
-0.275
 12
1.4
 22
0.275
 13
1.4
 23
0.275
  0
ENDBLK
  8
0
  0
BLOCK
  8
0
  2
LCA2R
 70
0
 10
0
 20
0
  0
SOLID
  8
1
 62
7 
 10
0
 20
0
 11
1.65
 21
-0.525
 12
1.65
 22
0.525
 13
1.65
 23
0.525
  0
ENDBLK
  8
0
  0
BLOCK
  8
0
  2
LCA3R
 70
0
 10
0
 20
0
  0
SOLID
  8
1
 62
7 
 10
0
 20
0
 11
2.15
 21
-1.15
 12
2.15
 22
1.15
 13
2.15
 23
1.15
  0
ENDBLK
  8
0
  0
BLOCK
  8
0
  2
B12699_00995768
 70
0
 10
0
 20
0
  0
POLYLINE
  8
1
 70
1
 66
1
 40
0.5
 41
0.5
  0
VERTEX
  8
1
 10
-1.25
 20
-5
 42
1
  0
VERTEX
  8
1
 10
-0.75
 20
-5
 42
1
  0
SEQEND
  8
1
  0
POLYLINE
  8
1
 70
1
 66
1
 40
0.5
 41
0.5
  0
VERTEX
  8
1
 10
2.75
 20
-25
 42
1
  0
VERTEX
  8
1
 10
3.25
 20
-25
 42
1
  0
SEQEND
  8
1
  0
POLYLINE
  8
1
 70
1
 66
1
 40
0.5
 41
0.5
  0
VERTEX
  8
1
 10
2.75
 20
25
 42
1
  0
VERTEX
  8
1
 10
3.25
 20
25
 42
1
  0
SEQEND
  8
1
  0
TEXT
  8
1
 40
2.4749997138977
 41
0.75
  1
12
  7
STANDARD
 10
28
 20
-11.7625001430511
  0
TEXT
  8
1
 40
2.4749997138977
 41
0.75
  1
14
  7
STANDARD
 10
-30
 20
-11.7625001430511
  0
TEXT
  8
1
 40
2.4749997138977
 41
0.75
  1
12/14
  7
STANDARD
 72
2
 10
-22.4471778869629
 20
-38.7625001430511
 11
-22.4471778869629
 21
-38.7625001430511
  0
TEXT
  8
1
 40
2.4749997138977
 41
0.75
  1
1
  7
STANDARD
 10
5
 20
-38.7625001430511
  0
TEXT
  8
1
 40
2.4749997138977
 41
0.75
  1
2
  7
STANDARD
 10
5
 20
31.2374998569488
  0
LINE
  8
1
 10
3
 20
29
 11
3
 21
33
  0
ARC
  8
1
 10
3
 20
-7
 40
9
 50
70.528596800055
 51
109.471050579339
  0
ARC
  8
1
 10
3
 20
13
 40
9
 50
250.52865870751
 51
289.47139531546
  0
LINE
  8
1
 10
3
 20
4
 11
3
 21
10
  0
LINE
  8
1
 10
13
 20
3
 11
-7
 21
3
  0
POLYLINE
  8
1
 66
1
  0
VERTEX
  8
1
 10
-3
 20
0
  0
VERTEX
  8
1
 10
9
 20
0
  0
VERTEX
  8
1
 10
9
 20
6
  0
VERTEX
  8
1
 10
-3
 20
6
  0
VERTEX
  8
1
 10
-3
 20
0
  0
SEQEND
  8
1
  0
POLYLINE
  8
1
 66
1
  0
VERTEX
  8
1
 10
21
 20
2
  0
VERTEX
  8
1
 10
23
 20
3
  0
VERTEX
  8
1
 10
21
 20
4
  0
SEQEND
  8
1
  0
LINE
  8
1
 10
19
 20
5
 11
19
 21
3
  0
LINE
  8
1
 10
17
 20
1
 11
17
 21
3
  0
LINE
  8
1
 10
15
 20
5
 11
15
 21
3
  0
POLYLINE
  8
1
 66
1
  0
VERTEX
  8
1
 10
13
 20
5
  0
VERTEX
  8
1
 10
21
 20
5
  0
VERTEX
  8
1
 10
21
 20
1
  0
VERTEX
  8
1
 10
13
 20
1
  0
VERTEX
  8
1
 10
13
 20
5
  0
SEQEND
  8
1
  0
LINE
  8
1
 10
35.4666666666667
 20
12.5333333333333
 11
42.4666666666667
 21
15.5333333333333
  0
INSERT
  8
1
  2
LCA1
 10
42.4666666666667
 20
15.5333333333333
 50
23.1985905136482
  0
LINE
  8
1
 10
39
 20
22
 11
39
 21
6
  0
ARC
  8
1
 10
29
 20
14
 40
9
 50
340.528596800055
 51
19.4710505793386
  0
ARC
  8
1
 10
49
 20
14
 40
9
 50
160.52865870751
 51
199.47139531546
  0
POLYLINE
  8
1
 66
1
  0
VERTEX
  8
1
 10
5
 20
17
  0
VERTEX
  8
1
 10
3
 20
19
  0
VERTEX
  8
1
 10
1
 20
17
  0
SEQEND
  8
1
  0
CIRCLE
  8
1
 10
3
 20
17.4666666666667
 40
1
  0
LINE
  8
1
 10
3
 20
16.5
 11
3
 21
13
  0
LINE
  8
1
 10
3
 20
19
 11
3
 21
22
  0
POLYLINE
  8
1
 66
1
  0
VERTEX
  8
1
 10
3
 20
11.4
  0
VERTEX
  8
1
 10
5
 20
11.8166666666667
  0
VERTEX
  8
1
 10
1
 20
12.65
  0
VERTEX
  8
1
 10
5
 20
13.4833333333333
  0
VERTEX
  8
1
 10
1
 20
14.3166666666667
  0
VERTEX
  8
1
 10
5
 20
15.15
  0
VERTEX
  8
1
 10
1
 20
15.9833333333333
  0
VERTEX
  8
1
 10
3
 20
16.4
  0
SEQEND
  8
1
  0
POLYLINE
  8
1
 66
1
  0
VERTEX
  8
1
 10
26
 20
-11
  0
VERTEX
  8
1
 10
25.5833333333333
 20
-13
  0
VERTEX
  8
1
 10
24.75
 20
-9
  0
VERTEX
  8
1
 10
23.9166666666667
 20
-13
  0
VERTEX
  8
1
 10
23.0833333333333
 20
-9
  0
VERTEX
  8
1
 10
22.25
 20
-13
  0
VERTEX
  8
1
 10
21.4166666666667
 20
-9
  0
VERTEX
  8
1
 10
21
 20
-11
  0
SEQEND
  8
1
  0
LINE
  8
1
 10
-15
 20
-9
 11
-15
 21
-13
  0
LINE
  8
1
 10
21
 20
-9
 11
21
 21
-13
  0
POLYLINE
  8
1
 66
1
  0
VERTEX
  8
1
 10
21
 20
-15
  0
VERTEX
  8
1
 10
23
 20
-15
  0
VERTEX
  8
1
 10
23
 20
-21
  0
VERTEX
  8
1
 10
21
 20
-21
  0
VERTEX
  8
1
 10
21
 20
-15
  0
SEQEND
  8
1
  0
POLYLINE
  8
1
 66
1
  0
VERTEX
  8
1
 10
-17
 20
-18
  0
VERTEX
  8
1
 10
-15
 20
-18
  0
VERTEX
  8
1
 10
-15
 20
-21
  0
VERTEX
  8
1
 10
-17
 20
-21
  0
VERTEX
  8
1
 10
-17
 20
-18
  0
SEQEND
  8
1
  0
LINE
  8
1
 10
-17.0314207650273
 20
-7.98490962589322
 11
-17.0314207650273
 21
-9.98490962589323
  0
POLYLINE
  8
1
 66
1
  0
VERTEX
  8
1
 10
-15.0314207650273
 20
-10.9849096258932
  0
VERTEX
  8
1
 10
-17.2814207650273
 20
-10.9849096258932
  0
VERTEX
  8
1
 10
-18.0314207650273
 20
-12.2839477315699
  0
VERTEX
  8
1
 10
-18.7814207650273
 20
-10.9849096258932
  0
VERTEX
  8
1
 10
-21.0314207650273
 20
-10.9849096258932
  0
SEQEND
  8
1
  0
LINE
  8
1
 10
31
 20
-13.5
 11
27
 21
-13.5
  0
LINE
  8
1
 10
31
 20
-13
 11
31
 21
-16
  0
LINE
  8
1
 10
31
 20
-15.5
 11
27
 21
-15.5
  0
LINE
  8
1
 10
27
 20
-17
 11
27
 21
-13
  0
LINE
  8
1
 10
-25
 20
-13.5
 11
-21
 21
-13.5
  0
LINE
  8
1
 10
-25
 20
-13
 11
-25
 21
-16
  0
LINE
  8
1
 10
-25
 20
-15.5
 11
-21
 21
-15.5
  0
LINE
  8
1
 10
-21
 20
-17
 11
-21
 21
-13
  0
POLYLINE
  8
1
 66
1
  0
VERTEX
  8
1
 10
27
 20
-17
  0
VERTEX
  8
1
 10
23
 20
-17
  0
VERTEX
  8
1
 10
23
 20
-21
  0
VERTEX
  8
1
 10
27
 20
-21
  0
VERTEX
  8
1
 10
27
 20
-17
  0
SEQEND
  8
1
  0
LINE
  8
1
 10
27
 20
-17
 11
23.5358983848622
 21
-19
  0
LINE
  8
1
 10
27
 20
-21
 11
23.5358983848622
 21
-19
  0
POLYLINE
  8
1
 66
1
  0
VERTEX
  8
1
 10
-21
 20
-17
  0
VERTEX
  8
1
 10
-17
 20
-17
  0
VERTEX
  8
1
 10
-17
 20
-21
  0
VERTEX
  8
1
 10
-21
 20
-21
  0
VERTEX
  8
1
 10
-21
 20
-17
  0
SEQEND
  8
1
  0
LINE
  8
1
 10
-21
 20
-17
 11
-17.5358983848622
 21
-19
  0
LINE
  8
1
 10
-21
 20
-21
 11
-17.5358983848622
 21
-19
  0
LINE
  8
1
 10
-25
 20
-21
 11
-23
 21
-17
  0
POLYLINE
  8
1
 66
1
  0
VERTEX
  8
1
 10
-27
 20
-17
  0
VERTEX
  8
1
 10
-21
 20
-17
  0
VERTEX
  8
1
 10
-21
 20
-21
  0
VERTEX
  8
1
 10
-27
 20
-21
  0
VERTEX
  8
1
 10
-27
 20
-17
  0
SEQEND
  8
1
  0
LINE
  8
1
 10
29
 20
-17
 11
31
 21
-21
  0
POLYLINE
  8
1
 66
1
  0
VERTEX
  8
1
 10
27
 20
-17
  0
VERTEX
  8
1
 10
33
 20
-17
  0
VERTEX
  8
1
 10
33
 20
-21
  0
VERTEX
  8
1
 10
27
 20
-21
  0
VERTEX
  8
1
 10
27
 20
-17
  0
SEQEND
  8
1
  0
LINE
  8
1
 10
-13
 20
-21
 11
-13
 21
-19
  0
INSERT
  8
1
  2
LCBP1
 10
-13
 20
-19
 50
90
  0
POLYLINE
  8
1
 66
1
  0
VERTEX
  8
1
 10
-15
 20
-13
  0
VERTEX
  8
1
 10
-3
 20
-13
  0
VERTEX
  8
1
 10
-3
 20
-21
  0
VERTEX
  8
1
 10
-15
 20
-21
  0
VERTEX
  8
1
 10
-15
 20
-13
  0
SEQEND
  8
1
  0
LINE
  8
1
 10
-5
 20
-13
 11
-5
 21
-21
  0
INSERT
  8
1
  2
LCA1
 10
-5
 20
-21
 50
-90
  0
LINE
  8
1
 10
-9
 20
-21
 11
-13
 21
-13
  0
INSERT
  8
1
  2
LCA1
 10
-13
 20
-13
 50
116.565051177078
  0
LINE
  8
1
 10
19
 20
-21
 11
19
 21
-19
  0
INSERT
  8
1
  2
LCBP0
 10
19
 20
-19
 50
90
  0
POLYLINE
  8
1
 66
1
  0
VERTEX
  8
1
 10
9
 20
-13
  0
VERTEX
  8
1
 10
21
 20
-13
  0
VERTEX
  8
1
 10
21
 20
-21
  0
VERTEX
  8
1
 10
9
 20
-21
  0
VERTEX
  8
1
 10
9
 20
-13
  0
SEQEND
  8
1
  0
LINE
  8
1
 10
11
 20
-13
 11
11
 21
-21
  0
INSERT
  8
1
  2
LCA1
 10
11
 20
-21
 50
-90
  0
LINE
  8
1
 10
15
 20
-21
 11
19
 21
-13
  0
INSERT
  8
1
  2
LCA1
 10
19
 20
-13
 50
63.434948822922
  0
LINE
  8
1
 10
3
 20
-17
 11
3
 21
-21
  0
POLYLINE
  8
1
 70
1
 66
1
 40
0.5
 41
0.5
  0
VERTEX
  8
1
 10
2.75
 20
-17
 42
1
  0
VERTEX
  8
1
 10
3.25
 20
-17
 42
1
  0
SEQEND
  8
1
  0
LINE
  8
1
 10
-1
 20
-17
 11
7
 21
-17
  0
LINE
  8
1
 10
7
 20
-17
 11
7
 21
-13
  0
INSERT
  8
1
  2
LCA1
 10
7
 20
-13
 50
90
  0
LINE
  8
1
 10
-1
 20
-17
 11
-1
 21
-13
  0
INSERT
  8
1
  2
LCA1
 10
-1
 20
-13
 50
90
  0
LINE
  8
1
 10
-1
 20
-21
 11
-1
 21
-19
  0
INSERT
  8
1
  2
LCBP1
 10
-1
 20
-19
 50
90
  0
LINE
  8
1
 10
7
 20
-21
 11
7
 21
-19
  0
INSERT
  8
1
  2
LCBP1
 10
7
 20
-19
 50
90
  0
POLYLINE
  8
1
 66
1
  0
VERTEX
  8
1
 10
-3
 20
-13
  0
VERTEX
  8
1
 10
9
 20
-13
  0
VERTEX
  8
1
 10
9
 20
-21
  0
VERTEX
  8
1
 10
-3
 20
-21
  0
VERTEX
  8
1
 10
-3
 20
-13
  0
SEQEND
  8
1
  0
LINE
  8
1
 10
-21
 20
-21
 11
-21
 21
-33
  0
POLYLINE
  8
1
  6
DASHDOT
 66
1
  0
VERTEX
  8
1
 10
-43
 20
29
  0
VERTEX
  8
1
 10
43
 20
29
  0
VERTEX
  8
1
 10
43
 20
-33
  0
VERTEX
  8
1
 10
-43
 20
-33
  0
VERTEX
  8
1
 10
-43
 20
29
  0
SEQEND
  8
1
  0
LINE
  8
1
 10
39
 20
25
 11
39
 21
22
  0
LINE
  8
1
 10
3
 20
25
 11
39
 21
25
  0
LINE
  8
1
 10
3
 20
22
 11
3
 21
29
  0
LINE
  8
1
 10
39
 20
-29
 11
39
 21
6
  0
LINE
  8
1
 10
7
 20
-29
 11
39
 21
-29
  0
LINE
  8
1
 10
3
 20
13
 11
3
 21
10
  0
LINE
  8
1
 10
-39
 20
-29
 11
-39
 21
3
  0
LINE
  8
1
 10
-7
 20
3
 11
-39
 21
3
  0
LINE
  8
1
 10
-1
 20
-29
 11
-39
 21
-29
  0
LINE
  8
1
 10
-35
 20
-25
 11
3
 21
-25
  0
LINE
  8
1
 10
-35
 20
-5
 11
-35
 21
-25
  0
LINE
  8
1
 10
-1
 20
-13
 11
-1
 21
-5
  0
LINE
  8
1
 10
7
 20
-13
 11
7
 21
-5
  0
LINE
  8
1
 10
7
 20
-5
 11
-35
 21
-5
  0
LINE
  8
1
 10
-1
 20
-21
 11
-1
 21
-29
  0
LINE
  8
1
 10
7
 20
-21
 11
7
 21
-29
  0
LINE
  8
1
 10
3
 20
-21
 11
3
 21
-33
  0
CIRCLE
  8
CONNECTIONS
 10
3
 20
-33
 40
0
  0
CIRCLE
  8
CONNECTIONS
 10
-21
 20
-33
 40
0
  0
CIRCLE
  8
CONNECTIONS
 10
3
 20
33
 40
0
  0
CIRCLE
  8
CONNECTIONS
 10
27
 20
-19
 40
0
  0
CIRCLE
  8
CONNECTIONS
 10
23
 20
-19
 40
0
  0
CIRCLE
  8
CONNECTIONS
 10
-21
 20
-19
 40
0
  0
CIRCLE
  8
CONNECTIONS
 10
-17
 20
-19
 40
0
  0
CIRCLE
  8
CONNECTIONS
 10
-21
 20
-19
 40
0
  0
CIRCLE
  8
CONNECTIONS
 10
27
 20
-19
 40
0
  0
ENDBLK
  8
0
  0
ENDSEC
  0
SECTION
  2
ENTITIES
  0
INSERT
  8
1
  2
B12699_00995768
 10
43
 20
33
  0
ENDSEC
  0
EOF
