  0
SECTION
  2
HEADER
  9
$LIMMIN
 10
0
 20
0
  9
$LIMMAX
 10
52.5
 20
74.25
  9
$EXTMIN
 10
0
 20
144
  9
$EXTMAX
 10
0
 20
41
  0
ENDSEC
  0
SECTION
  2
TABLES
  0
TABLE
  2
LTYPE
 70
9
  0
LTYPE
  2
CONTINUOUS
 70
64
  3
Solid line
 72
65
 73
0
 40
0
  0
LTYPE
  2
DASHED
 70
64
  3
__ __ __ __ __ __ __ __ __
 72
65
 73
2
 40
0.75
 49
0.5
 49
-0.25
  0
LTYPE
  2
DOT
 70
64
  3
...........................
 72
65
 73
2
 40
0.25
 49
0
 49
-0.25
  0
LTYPE
  2
DASHDOT
 70
64
  3
__ . __ . __ . __ . __ . __ . 
 72
65
 73
4
 40
1
 49
0.5
 49
-0.25
 49
0
 49
-0.25
  0
ENDTAB
  0
TABLE
  2
LAYER
 70
10
  0
LAYER
  2
1
 70
0
 62
7
  6
CONTINUOUS
  0
LAYER
  2
CONNECTIONS
 70
0
 62
-7
  6
CONTINUOUS
  0
ENDTAB
  0
ENDSEC
  0
SECTION
  2
BLOCKS
  0
BLOCK
  8
0
  2
TRICON
 70
0
 10
0
 20
0
  0
POLYLINE
  8
1
 70
1
 66
1
 40
0.5
 41
0.5
  0
VERTEX
  8
1
 10
-0.25
 20
0
 42
1
  0
VERTEX
  8
1
 10
0.25
 20
0
 42
1
  0
SEQEND
  8
1
  0
ENDBLK
  8
0
  0
BLOCK
  8
0
  2
TRICONSMALL
 70
0
 10
0
 20
0
  0
POLYLINE
  8
1
 70
1
 66
1
 40
0.25
 41
0.25
  0
VERTEX
  8
1
 10
-0.125
 20
0
 42
1
  0
VERTEX
  8
1
 10
0.125
 20
0
 42
1
  0
SEQEND
  8
1
  0
ENDBLK
  8
0
  0
BLOCK
  8
0
  2
TRICONCIRCLE
 70
0
 10
0
 20
0
  0
CIRCLE
  8
1
 10
0
 20
0
 40
0.5
  0
ENDBLK
  8
0
  0
BLOCK
  8
0
  2
LCBP0
 70
0
 10
0
 20
0
  0
LINE
  8
1
 10
0
 20
-0.46875
 11
0
 21
0.46875
  0
ENDBLK
  8
0
  0
BLOCK
  8
0
  2
LCBP1
 70
0
 10
0
 20
0
  0
LINE
  8
1
 10
0
 20
-0.625
 11
0
 21
0.625
  0
ENDBLK
  8
0
  0
BLOCK
  8
0
  2
LCBP2
 70
0
 10
0
 20
0
  0
LINE
  8
1
 10
0
 20
-0.9375
 11
0
 21
0.9375
  0
ENDBLK
  8
0
  0
BLOCK
  8
0
  2
LCA1
 70
0
 10
0
 20
0
  0
SOLID
  8
1
 62
7 
 10
0
 20
0
 11
-1.4
 21
-0.275
 12
-1.4
 22
0.275
 13
-1.4
 23
0.275
  0
ENDBLK
  8
0
  0
BLOCK
  8
0
  2
LCA2
 70
0
 10
0
 20
0
  0
SOLID
  8
1
 62
7 
 10
0
 20
0
 11
-1.65
 21
-0.525
 12
-1.65
 22
0.525
 13
-1.65
 23
0.525
  0
ENDBLK
  8
0
  0
BLOCK
  8
0
  2
LCA3
 70
0
 10
0
 20
0
  0
SOLID
  8
1
 62
7 
 10
0
 20
0
 11
-2.15
 21
-1.15
 12
-2.15
 22
1.15
 13
-2.15
 23
1.15
  0
ENDBLK
  8
0
  0
BLOCK
  8
0
  2
LCA1R
 70
0
 10
0
 20
0
  0
SOLID
  8
1
 62
7 
 10
0
 20
0
 11
1.4
 21
-0.275
 12
1.4
 22
0.275
 13
1.4
 23
0.275
  0
ENDBLK
  8
0
  0
BLOCK
  8
0
  2
LCA2R
 70
0
 10
0
 20
0
  0
SOLID
  8
1
 62
7 
 10
0
 20
0
 11
1.65
 21
-0.525
 12
1.65
 22
0.525
 13
1.65
 23
0.525
  0
ENDBLK
  8
0
  0
BLOCK
  8
0
  2
LCA3R
 70
0
 10
0
 20
0
  0
SOLID
  8
1
 62
7 
 10
0
 20
0
 11
2.15
 21
-1.15
 12
2.15
 22
1.15
 13
2.15
 23
1.15
  0
ENDBLK
  8
0
  0
BLOCK
  8
0
  2
B3225_00995732
 70
0
 10
0
 20
0
  0
POLYLINE
  8
1
 66
1
  0
VERTEX
  8
1
 10
-72
 20
20.5
  0
VERTEX
  8
1
 10
72
 20
20.5
  0
VERTEX
  8
1
 10
72
 20
-20.5
  0
VERTEX
  8
1
 10
-72
 20
-20.5
  0
VERTEX
  8
1
 10
-72
 20
20.5
  0
SEQEND
  8
1
  0
TEXT
  8
1
 40
7.2
 41
0.75
  1
1
  7
STANDARD
 72
1
 73
2
 10
56.1446011861165
 20
11.482262134552
 11
56.1446011861165
 21
11.482262134552
  0
TEXT
  8
1
 40
7.2
 41
0.75
  1
3
  7
STANDARD
 72
1
 73
2
 10
32.1975695292155
 20
11.6772473653158
 11
32.1975695292155
 21
11.6772473653158
  0
TEXT
  8
1
 40
7.2
 41
0.75
  1
2
  7
STANDARD
 72
1
 73
2
 10
43.3261324564616
 20
11.4615901311239
 11
43.3261324564616
 21
11.4615901311239
  0
TEXT
  8
1
 40
7.2
 41
0.75
  1
7
  7
STANDARD
 72
1
 73
2
 10
-25.9390939076742
 20
11.6565753618876
 11
-25.9390939076742
 21
11.6565753618876
  0
TEXT
  8
1
 40
7.2
 41
0.75
  1
10
  7
STANDARD
 72
1
 73
2
 10
-61.4673103332519
 20
11.8722325960795
 11
-61.4673103332519
 21
11.8722325960795
  0
TEXT
  8
1
 40
7.2
 41
0.75
  1
6
  7
STANDARD
 72
1
 73
2
 10
-14.8024304707845
 20
11.6772473653158
 11
-14.8024304707845
 21
11.6772473653158
  0
TEXT
  8
1
 40
7.2
 41
0.75
  1
8
  7
STANDARD
 72
1
 73
2
 10
-37.8024304707845
 20
11.6772473653158
 11
-37.8024304707845
 21
11.6772473653158
  0
TEXT
  8
1
 40
7.2
 41
0.75
  1
9
  7
STANDARD
 72
1
 73
2
 10
-49.0043202718099
 20
11.8515605926514
 11
-49.0043202718099
 21
11.8515605926514
  0
TEXT
  8
1
 40
7.2
 41
0.75
  1
4
  7
STANDARD
 72
1
 73
2
 10
20.0609060923258
 20
11.6565753618876
 11
20.0609060923258
 21
11.6565753618876
  0
TEXT
  8
1
 40
7.2
 41
0.75
  1
5
  7
STANDARD
 72
1
 73
2
 10
8.19756952921549
 20
11.6772473653158
 11
8.19756952921549
 21
11.6772473653158
  0
SOLID
  8
1
 10
41
 20
-1.5
 11
46
 21
-1.5
 12
41
 22
-3.3
 13
46
 23
-3.3
  0
SOLID
  8
1
 10
46
 20
-3.3
 11
41
 21
-3.3
 12
41
 22
-3.3
 13
41
 23
-1.5
  0
SOLID
  8
1
 10
29.5
 20
-1.5
 11
34.5
 21
-1.5
 12
29.5
 22
-3.3
 13
34.5
 23
-3.3
  0
SOLID
  8
1
 10
34.5
 20
-3.3
 11
29.5
 21
-3.3
 12
29.5
 22
-3.3
 13
29.5
 23
-1.5
  0
SOLID
  8
1
 10
18
 20
-1.5
 11
23
 21
-1.5
 12
18
 22
-3.3
 13
23
 23
-3.3
  0
SOLID
  8
1
 10
23
 20
-3.3
 11
18
 21
-3.3
 12
18
 22
-3.3
 13
18
 23
-1.5
  0
SOLID
  8
1
 10
53
 20
-1.5
 11
58
 21
-1.5
 12
53
 22
-3.3
 13
58
 23
-3.3
  0
SOLID
  8
1
 10
58
 20
-3.3
 11
53
 21
-3.3
 12
53
 22
-3.3
 13
53
 23
-1.5
  0
SOLID
  8
1
 10
6
 20
-1.5
 11
11
 21
-1.5
 12
6
 22
-3.3
 13
11
 23
-3.3
  0
SOLID
  8
1
 10
11
 20
-3.3
 11
6
 21
-3.3
 12
6
 22
-3.3
 13
6
 23
-1.5
  0
SOLID
  8
1
 10
-29
 20
-1.5
 11
-24
 21
-1.5
 12
-29
 22
-3.3
 13
-24
 23
-3.3
  0
SOLID
  8
1
 10
-24
 20
-3.3
 11
-29
 21
-3.3
 12
-29
 22
-3.3
 13
-29
 23
-1.5
  0
SOLID
  8
1
 10
-40.5
 20
-1.5
 11
-35.5
 21
-1.5
 12
-40.5
 22
-3.3
 13
-35.5
 23
-3.3
  0
SOLID
  8
1
 10
-35.5
 20
-3.3
 11
-40.5
 21
-3.3
 12
-40.5
 22
-3.3
 13
-40.5
 23
-1.5
  0
SOLID
  8
1
 10
-52
 20
-1.5
 11
-47
 21
-1.5
 12
-52
 22
-3.3
 13
-47
 23
-3.3
  0
SOLID
  8
1
 10
-47
 20
-3.3
 11
-52
 21
-3.3
 12
-52
 22
-3.3
 13
-52
 23
-1.5
  0
SOLID
  8
1
 10
-17
 20
-1.5
 11
-12
 21
-1.5
 12
-17
 22
-3.3
 13
-12
 23
-3.3
  0
SOLID
  8
1
 10
-12
 20
-3.3
 11
-17
 21
-3.3
 12
-17
 22
-3.3
 13
-17
 23
-1.5
  0
SOLID
  8
1
 10
-64
 20
-1.5
 11
-59
 21
-1.5
 12
-64
 22
-3.3
 13
-59
 23
-3.3
  0
SOLID
  8
1
 10
-59
 20
-3.3
 11
-64
 21
-3.3
 12
-64
 22
-3.3
 13
-64
 23
-1.5
  0
POLYLINE
  8
1
 66
1
  0
VERTEX
  8
1
 10
-1
 20
-5.5
  0
VERTEX
  8
1
 10
2
 20
-8.5
  0
VERTEX
  8
1
 10
62
 20
-8.5
  0
VERTEX
  8
1
 10
65
 20
-5.5
  0
VERTEX
  8
1
 10
-1
 20
-5.5
  0
SEQEND
  8
1
  0
POLYLINE
  8
1
 66
1
  0
VERTEX
  8
1
 10
-68
 20
-5.5
  0
VERTEX
  8
1
 10
-68
 20
-8.5
  0
VERTEX
  8
1
 10
-8
 20
-8.5
  0
VERTEX
  8
1
 10
-8
 20
-5.5
  0
VERTEX
  8
1
 10
-68
 20
-5.5
  0
SEQEND
  8
1
  0
POLYLINE
  8
1
 66
1
  0
VERTEX
  8
1
 10
-68
 20
4.5
  0
VERTEX
  8
1
 10
-68
 20
-8.5
  0
VERTEX
  8
1
 10
-8
 20
-8.5
  0
VERTEX
  8
1
 10
-8
 20
0.5
  0
VERTEX
  8
1
 10
-4
 20
0.5
  0
VERTEX
  8
1
 10
-4
 20
-2.5
  0
VERTEX
  8
1
 10
2
 20
-8.5
  0
VERTEX
  8
1
 10
62
 20
-8.5
  0
VERTEX
  8
1
 10
68
 20
-2.5
  0
VERTEX
  8
1
 10
68
 20
4.5
  0
VERTEX
  8
1
 10
-68
 20
4.5
  0
SEQEND
  8
1
  0
ENDBLK
  8
0
  0
ENDSEC
  0
SECTION
  2
ENTITIES
  0
INSERT
  8
1
  2
B3225_00995732
 10
72
 20
20.5
  0
ENDSEC
  0
EOF
