  0
SECTION
  2
HEADER
  9
$LIMMIN
 10
0
 20
0
  9
$LIMMAX
 10
52.5
 20
74.25
  9
$EXTMIN
 10
0
 20
100
  9
$EXTMAX
 10
0
 20
107.230201721191
  0
ENDSEC
  0
SECTION
  2
TABLES
  0
TABLE
  2
LTYPE
 70
9
  0
LTYPE
  2
CONTINUOUS
 70
64
  3
Solid line
 72
65
 73
0
 40
0
  0
LTYPE
  2
DASHED
 70
64
  3
__ __ __ __ __ __ __ __ __
 72
65
 73
2
 40
0.75
 49
0.5
 49
-0.25
  0
LTYPE
  2
DOT
 70
64
  3
...........................
 72
65
 73
2
 40
0.25
 49
0
 49
-0.25
  0
LTYPE
  2
DASHDOT
 70
64
  3
__ . __ . __ . __ . __ . __ . 
 72
65
 73
4
 40
1
 49
0.5
 49
-0.25
 49
0
 49
-0.25
  0
ENDTAB
  0
TABLE
  2
LAYER
 70
10
  0
LAYER
  2
1
 70
0
 62
7
  6
CONTINUOUS
  0
LAYER
  2
CONNECTIONS
 70
0
 62
-7
  6
CONTINUOUS
  0
ENDTAB
  0
ENDSEC
  0
SECTION
  2
BLOCKS
  0
BLOCK
  8
0
  2
TRICON
 70
0
 10
0
 20
0
  0
POLYLINE
  8
1
 70
1
 66
1
 40
0.5
 41
0.5
  0
VERTEX
  8
1
 10
-0.25
 20
0
 42
1
  0
VERTEX
  8
1
 10
0.25
 20
0
 42
1
  0
SEQEND
  8
1
  0
ENDBLK
  8
0
  0
BLOCK
  8
0
  2
TRICONSMALL
 70
0
 10
0
 20
0
  0
POLYLINE
  8
1
 70
1
 66
1
 40
0.25
 41
0.25
  0
VERTEX
  8
1
 10
-0.125
 20
0
 42
1
  0
VERTEX
  8
1
 10
0.125
 20
0
 42
1
  0
SEQEND
  8
1
  0
ENDBLK
  8
0
  0
BLOCK
  8
0
  2
TRICONCIRCLE
 70
0
 10
0
 20
0
  0
CIRCLE
  8
1
 10
0
 20
0
 40
0.5
  0
ENDBLK
  8
0
  0
BLOCK
  8
0
  2
LCBP0
 70
0
 10
0
 20
0
  0
LINE
  8
1
 10
0
 20
-0.46875
 11
0
 21
0.46875
  0
ENDBLK
  8
0
  0
BLOCK
  8
0
  2
LCBP1
 70
0
 10
0
 20
0
  0
LINE
  8
1
 10
0
 20
-0.625
 11
0
 21
0.625
  0
ENDBLK
  8
0
  0
BLOCK
  8
0
  2
LCBP2
 70
0
 10
0
 20
0
  0
LINE
  8
1
 10
0
 20
-0.9375
 11
0
 21
0.9375
  0
ENDBLK
  8
0
  0
BLOCK
  8
0
  2
LCA1
 70
0
 10
0
 20
0
  0
SOLID
  8
1
 62
7 
 10
0
 20
0
 11
-1.4
 21
-0.275
 12
-1.4
 22
0.275
 13
-1.4
 23
0.275
  0
ENDBLK
  8
0
  0
BLOCK
  8
0
  2
LCA2
 70
0
 10
0
 20
0
  0
SOLID
  8
1
 62
7 
 10
0
 20
0
 11
-1.65
 21
-0.525
 12
-1.65
 22
0.525
 13
-1.65
 23
0.525
  0
ENDBLK
  8
0
  0
BLOCK
  8
0
  2
LCA3
 70
0
 10
0
 20
0
  0
SOLID
  8
1
 62
7 
 10
0
 20
0
 11
-2.15
 21
-1.15
 12
-2.15
 22
1.15
 13
-2.15
 23
1.15
  0
ENDBLK
  8
0
  0
BLOCK
  8
0
  2
LCA1R
 70
0
 10
0
 20
0
  0
SOLID
  8
1
 62
7 
 10
0
 20
0
 11
1.4
 21
-0.275
 12
1.4
 22
0.275
 13
1.4
 23
0.275
  0
ENDBLK
  8
0
  0
BLOCK
  8
0
  2
LCA2R
 70
0
 10
0
 20
0
  0
SOLID
  8
1
 62
7 
 10
0
 20
0
 11
1.65
 21
-0.525
 12
1.65
 22
0.525
 13
1.65
 23
0.525
  0
ENDBLK
  8
0
  0
BLOCK
  8
0
  2
LCA3R
 70
0
 10
0
 20
0
  0
SOLID
  8
1
 62
7 
 10
0
 20
0
 11
2.15
 21
-1.15
 12
2.15
 22
1.15
 13
2.15
 23
1.15
  0
ENDBLK
  8
0
  0
BLOCK
  8
0
  2
B2783_00995715
 70
0
 10
0
 20
0
  0
POLYLINE
  8
1
 66
1
  0
VERTEX
  8
1
 10
-50
 20
49.3515605926514
  0
VERTEX
  8
1
 10
50
 20
49.3515605926514
  0
VERTEX
  8
1
 10
50
 20
-50.6484394073486
  0
VERTEX
  8
1
 10
-50
 20
-50.6484394073486
  0
VERTEX
  8
1
 10
-50
 20
49.3515605926514
  0
SEQEND
  8
1
  0
LINE
  8
1
 10
-14
 20
35.3515605926514
 11
-4
 21
13.3515605926514
  0
TEXT
  8
1
 40
10.8
 41
0.75
  1
6
  7
STANDARD
 72
2
 73
2
 10
-21.4086405436198
 20
25
 11
-21.4086405436198
 21
25
  0
TEXT
  8
1
 40
10.8
 41
0.75
  1
1
  7
STANDARD
 72
2
 73
2
 10
-32.4086405436198
 20
-1.9754447485343
 11
-32.4086405436198
 21
-1.9754447485343
  0
TEXT
  8
1
 40
10.8
 41
0.75
  1
4
  7
STANDARD
 72
2
 73
2
 10
-21.2719771067301
 20
-30.2762068112691
 11
-21.2719771067301
 21
-30.2762068112691
  0
TEXT
  8
1
 40
10.8
 41
0.75
  1
2
  7
STANDARD
 72
1
 73
3
 10
-0.0410095803609165
 20
-35.3484394073486
 11
-0.0410095803609165
 21
-35.3484394073486
  0
TEXT
  8
1
 40
10.8
 41
0.75
  1
5
  7
STANDARD
 73
3
 10
25.1255440546618
 20
-21.9251993734216
 11
25.1255440546618
 21
-21.9251993734216
  0
TEXT
  8
1
 40
10.8
 41
0.75
  1
3
  7
STANDARD
 73
2
 10
31.7232105948799
 20
-1.42808443075777
 11
31.7232105948799
 21
-1.42808443075777
  0
TEXT
  8
1
 40
10.8
 41
0.75
  1
7
  7
STANDARD
 73
2
 10
22
 20
25
 11
22
 21
25
  0
TEXT
  8
1
 40
10.8
 41
0.75
  1
8
  7
STANDARD
 10
-22
 20
38.0484394073486
  0
POLYLINE
  8
1
 66
1
  0
VERTEX
  8
1
 10
-6
 20
28.3515605926514
  0
VERTEX
  8
1
 10
-6
 20
24.3515605926514
  0
VERTEX
  8
1
 10
6
 20
24.3515605926514
  0
VERTEX
  8
1
 10
6
 20
28.3515605926514
  0
SEQEND
  8
1
  0
LINE
  8
1
 10
-18.5
 20
-14.1484394073486
 11
-8.49999999999999
 21
-14.1484394073486
  0
LINE
  8
1
 10
-13.5
 20
-19.1484394073486
 11
-13.5
 21
-9.14843940734863
  0
LINE
  8
1
 10
8.5
 20
-14.1484394073486
 11
18.5
 21
-14.1484394073486
  0
LINE
  8
1
 10
13.5
 20
-19.1484394073486
 11
13.5
 21
-9.14843940734863
  0
LINE
  8
1
 10
-4.99999999999999
 20
7.35156059265137
 11
5.00000000000001
 21
7.35156059265137
  0
LINE
  8
1
 10
0
 20
2.35156059265137
 11
0
 21
12.3515605926514
  0
LINE
  8
1
 10
-18.4685138599738
 20
12.8515605926514
 11
-8.4685138599738
 21
12.8515605926514
  0
LINE
  8
1
 10
-13.4685138599738
 20
7.85156059265137
 11
-13.4685138599738
 21
17.8515605926514
  0
LINE
  8
1
 10
8.46383684169946
 20
12.8515605926514
 11
18.4638368416995
 21
12.8515605926514
  0
LINE
  8
1
 10
13.4638368416995
 20
7.85156059265137
 11
13.4638368416995
 21
17.8515605926514
  0
LINE
  8
1
 10
-5.08864648392322
 20
-19.6361794027222
 11
4.91135351607678
 21
-19.6361794027222
  0
LINE
  8
1
 10
-0.0886464839232227
 20
-24.6361794027222
 11
-0.0886464839232227
 21
-14.6361794027222
  0
LINE
  8
1
 10
-19
 20
-5.61731410374007
 11
-19
 21
4.38268589625993
  0
LINE
  8
1
 10
-24
 20
-0.617314103740076
 11
-14
 21
-0.617314103740076
  0
LINE
  8
1
 10
19.0915524520009
 20
-5.53994993244695
 11
19.0915524520009
 21
4.46005006755305
  0
LINE
  8
1
 10
14.0915524520009
 20
-0.539949932446954
 11
24.091552452001
 21
-0.539949932446954
  0
CIRCLE
  8
1
 10
0
 20
-0.648439407348633
 40
30
  0
ENDBLK
  8
0
  0
ENDSEC
  0
SECTION
  2
ENTITIES
  0
INSERT
  8
1
  2
B2783_00995715
 10
50
 20
53.6151008605957
  0
ENDSEC
  0
EOF
