  0
SECTION
  2
HEADER
  9
$LIMMIN
 10
0
 20
0
  9
$LIMMAX
 10
52.5
 20
74.25
  9
$EXTMIN
 10
0
 20
92
  9
$EXTMAX
 10
0
 20
118
  0
ENDSEC
  0
SECTION
  2
TABLES
  0
TABLE
  2
LTYPE
 70
9
  0
LTYPE
  2
CONTINUOUS
 70
64
  3
Solid line
 72
65
 73
0
 40
0
  0
LTYPE
  2
DASHED
 70
64
  3
__ __ __ __ __ __ __ __ __
 72
65
 73
2
 40
0.75
 49
0.5
 49
-0.25
  0
LTYPE
  2
DOT
 70
64
  3
...........................
 72
65
 73
2
 40
0.25
 49
0
 49
-0.25
  0
LTYPE
  2
DASHDOT
 70
64
  3
__ . __ . __ . __ . __ . __ . 
 72
65
 73
4
 40
1
 49
0.5
 49
-0.25
 49
0
 49
-0.25
  0
ENDTAB
  0
TABLE
  2
LAYER
 70
10
  0
LAYER
  2
1
 70
0
 62
7
  6
CONTINUOUS
  0
LAYER
  2
CONNECTIONS
 70
0
 62
-7
  6
CONTINUOUS
  0
ENDTAB
  0
ENDSEC
  0
SECTION
  2
BLOCKS
  0
BLOCK
  8
0
  2
TRICON
 70
0
 10
0
 20
0
  0
POLYLINE
  8
1
 70
1
 66
1
 40
0.5
 41
0.5
  0
VERTEX
  8
1
 10
-0.25
 20
0
 42
1
  0
VERTEX
  8
1
 10
0.25
 20
0
 42
1
  0
SEQEND
  8
1
  0
ENDBLK
  8
0
  0
BLOCK
  8
0
  2
TRICONSMALL
 70
0
 10
0
 20
0
  0
POLYLINE
  8
1
 70
1
 66
1
 40
0.25
 41
0.25
  0
VERTEX
  8
1
 10
-0.125
 20
0
 42
1
  0
VERTEX
  8
1
 10
0.125
 20
0
 42
1
  0
SEQEND
  8
1
  0
ENDBLK
  8
0
  0
BLOCK
  8
0
  2
TRICONCIRCLE
 70
0
 10
0
 20
0
  0
CIRCLE
  8
1
 10
0
 20
0
 40
0.5
  0
ENDBLK
  8
0
  0
BLOCK
  8
0
  2
LCBP0
 70
0
 10
0
 20
0
  0
LINE
  8
1
 10
0
 20
-0.46875
 11
0
 21
0.46875
  0
ENDBLK
  8
0
  0
BLOCK
  8
0
  2
LCBP1
 70
0
 10
0
 20
0
  0
LINE
  8
1
 10
0
 20
-0.625
 11
0
 21
0.625
  0
ENDBLK
  8
0
  0
BLOCK
  8
0
  2
LCBP2
 70
0
 10
0
 20
0
  0
LINE
  8
1
 10
0
 20
-0.9375
 11
0
 21
0.9375
  0
ENDBLK
  8
0
  0
BLOCK
  8
0
  2
LCA1
 70
0
 10
0
 20
0
  0
SOLID
  8
1
 62
7 
 10
0
 20
0
 11
-1.4
 21
-0.275
 12
-1.4
 22
0.275
 13
-1.4
 23
0.275
  0
ENDBLK
  8
0
  0
BLOCK
  8
0
  2
LCA2
 70
0
 10
0
 20
0
  0
SOLID
  8
1
 62
7 
 10
0
 20
0
 11
-1.65
 21
-0.525
 12
-1.65
 22
0.525
 13
-1.65
 23
0.525
  0
ENDBLK
  8
0
  0
BLOCK
  8
0
  2
LCA3
 70
0
 10
0
 20
0
  0
SOLID
  8
1
 62
7 
 10
0
 20
0
 11
-2.15
 21
-1.15
 12
-2.15
 22
1.15
 13
-2.15
 23
1.15
  0
ENDBLK
  8
0
  0
BLOCK
  8
0
  2
LCA1R
 70
0
 10
0
 20
0
  0
SOLID
  8
1
 62
7 
 10
0
 20
0
 11
1.4
 21
-0.275
 12
1.4
 22
0.275
 13
1.4
 23
0.275
  0
ENDBLK
  8
0
  0
BLOCK
  8
0
  2
LCA2R
 70
0
 10
0
 20
0
  0
SOLID
  8
1
 62
7 
 10
0
 20
0
 11
1.65
 21
-0.525
 12
1.65
 22
0.525
 13
1.65
 23
0.525
  0
ENDBLK
  8
0
  0
BLOCK
  8
0
  2
LCA3R
 70
0
 10
0
 20
0
  0
SOLID
  8
1
 62
7 
 10
0
 20
0
 11
2.15
 21
-1.15
 12
2.15
 22
1.15
 13
2.15
 23
1.15
  0
ENDBLK
  8
0
  0
BLOCK
  8
0
  2
B1811_00995710
 70
0
 10
0
 20
0
  0
POLYLINE
  8
1
 66
1
  0
VERTEX
  8
1
 10
-46
 20
59
  0
VERTEX
  8
1
 10
46
 20
59
  0
VERTEX
  8
1
 10
46
 20
-59
  0
VERTEX
  8
1
 10
-46
 20
-59
  0
VERTEX
  8
1
 10
-46
 20
59
  0
SEQEND
  8
1
  0
LINE
  8
1
 10
30
 20
-33
 11
30
 21
15
  0
ARC
  8
1
 10
-24
 20
-33
 40
6
 50
180
 51
270
  0
LINE
  8
1
 10
-30
 20
15
 11
-30
 21
-33
  0
ARC
  8
1
 10
-24
 20
15
 40
6
 50
90
 51
180
  0
LINE
  8
1
 10
24
 20
21
 11
-24
 21
21
  0
LINE
  8
1
 10
-24
 20
-39
 11
24
 21
-39
  0
ARC
  8
1
 10
24
 20
15
 40
6
 50
0
 51
90
  0
ARC
  8
1
 10
24
 20
-33
 40
6
 50
270
 51
0
  0
LINE
  8
1
 10
-16
 20
6
 11
-16
 21
45
  0
LINE
  8
1
 10
16
 20
6
 11
16
 21
45
  0
SOLID
  8
1
 10
-15.8480645070343
 20
40.992838816995
 11
-10.8480645070343
 21
41.992838816995
 12
-15.8480645070343
 22
40.992838816995
 13
-10.8480645070343
 23
39.992838816995
  0
LINE
  8
1
 10
-16
 20
41
 11
16
 21
41
  0
SOLID
  8
1
 10
16.048991137801
 20
41.0530510210795
 11
11.048991137801
 21
40.0530510210795
 12
16.048991137801
 22
41.0530510210795
 13
11.048991137801
 23
42.0530510210795
  0
POLYLINE
  8
1
 66
1
  0
VERTEX
  8
1
 10
-14.5
 20
-17
  0
VERTEX
  8
1
 10
-14.5
 20
0
  0
VERTEX
  8
1
 10
-17.5
 20
0
  0
VERTEX
  8
1
 10
-17.5
 20
-17
  0
VERTEX
  8
1
 10
-14.5
 20
-17
  0
SEQEND
  8
1
  0
POLYLINE
  8
1
 66
1
  0
VERTEX
  8
1
 10
-8.5
 20
5.5
  0
VERTEX
  8
1
 10
8.5
 20
5.5
  0
VERTEX
  8
1
 10
8.5
 20
8.5
  0
VERTEX
  8
1
 10
-8.5
 20
8.5
  0
VERTEX
  8
1
 10
-8.5
 20
5.5
  0
SEQEND
  8
1
  0
POLYLINE
  8
1
 66
1
  0
VERTEX
  8
1
 10
-8.5
 20
-26.5
  0
VERTEX
  8
1
 10
8.5
 20
-26.5
  0
VERTEX
  8
1
 10
8.5
 20
-23.5
  0
VERTEX
  8
1
 10
-8.5
 20
-23.5
  0
VERTEX
  8
1
 10
-8.5
 20
-26.5
  0
SEQEND
  8
1
  0
POLYLINE
  8
1
 66
1
  0
VERTEX
  8
1
 10
17.5
 20
-17
  0
VERTEX
  8
1
 10
17.5
 20
0
  0
VERTEX
  8
1
 10
14.5
 20
0
  0
VERTEX
  8
1
 10
14.5
 20
-17
  0
VERTEX
  8
1
 10
17.5
 20
-17
  0
SEQEND
  8
1
  0
LINE
  8
1
  6
DASHDOT
 10
16
 20
6
 11
16
 21
-20
  0
LINE
  8
1
  6
DASHDOT
 10
-16
 20
6
 11
-16
 21
-20
  0
TEXT
  8
1
 40
6.075
 41
0.75
  1
18
  7
STANDARD
 72
1
 10
-1.06765683492025
 20
42.8425147692363
 11
-1.06765683492025
 21
42.8425147692363
  0
TEXT
  8
1
 40
7.59375
 41
0.75
  1
2
  7
STANDARD
 73
2
 10
31.1684670448303
 20
-9.71529074509938
 11
31.1684670448303
 21
-9.71529074509938
  0
TEXT
  8
1
 40
7.59375
 41
0.75
  1
1
  7
STANDARD
 72
2
 73
2
 10
-30.6684670448303
 20
-10.0347092549006
 11
-30.6684670448303
 21
-10.0347092549006
  0
LINE
  8
1
 10
0
 20
30.3
 11
0
 21
32.9
  0
LINE
  8
1
 10
-3.9
 20
30.3
 11
3.9
 21
30.3
  0
LINE
  8
1
 10
-2.6
 20
28.35
 11
2.6
 21
28.35
  0
LINE
  8
1
 10
-1.3
 20
26.4
 11
1.3
 21
26.4
  0
LINE
  8
1
 10
0
 20
-46.2
 11
0
 21
-43.6
  0
LINE
  8
1
 10
-3.9
 20
-46.2
 11
3.9
 21
-46.2
  0
LINE
  8
1
 10
-2.6
 20
-48.15
 11
2.6
 21
-48.15
  0
LINE
  8
1
 10
-1.3
 20
-50.1
 11
1.3
 21
-50.1
  0
CIRCLE
  8
1
 10
0
 20
29
 40
5.2
  0
CIRCLE
  8
1
 10
0
 20
-47
 40
5.2
  0
CIRCLE
  8
1
 10
0
 20
-9
 40
3.2
  0
CIRCLE
  8
1
 10
0
 20
-9
 40
5
  0
ENDBLK
  8
0
  0
ENDSEC
  0
SECTION
  2
ENTITIES
  0
INSERT
  8
1
  2
B1811_00995710
 10
46
 20
59
  0
ENDSEC
  0
EOF
