  0
SECTION
  2
HEADER
  9
$LIMMIN
 10
0
 20
0
  9
$LIMMAX
 10
52.5
 20
74.25
  9
$EXTMIN
 10
0
 20
42.3949051570892
  9
$EXTMAX
 10
0
 20
18
  0
ENDSEC
  0
SECTION
  2
TABLES
  0
TABLE
  2
LTYPE
 70
9
  0
LTYPE
  2
CONTINUOUS
 70
64
  3
Solid line
 72
65
 73
0
 40
0
  0
LTYPE
  2
DASHED
 70
64
  3
__ __ __ __ __ __ __ __ __
 72
65
 73
2
 40
0.75
 49
0.5
 49
-0.25
  0
LTYPE
  2
DOT
 70
64
  3
...........................
 72
65
 73
2
 40
0.25
 49
0
 49
-0.25
  0
LTYPE
  2
DASHDOT
 70
64
  3
__ . __ . __ . __ . __ . __ . 
 72
65
 73
4
 40
1
 49
0.5
 49
-0.25
 49
0
 49
-0.25
  0
ENDTAB
  0
TABLE
  2
LAYER
 70
10
  0
LAYER
  2
1
 70
0
 62
7
  6
CONTINUOUS
  0
LAYER
  2
CONNECTIONS
 70
0
 62
-7
  6
CONTINUOUS
  0
ENDTAB
  0
ENDSEC
  0
SECTION
  2
BLOCKS
  0
BLOCK
  8
0
  2
TRICON
 70
0
 10
0
 20
0
  0
POLYLINE
  8
1
 70
1
 66
1
 40
0.5
 41
0.5
  0
VERTEX
  8
1
 10
-0.25
 20
0
 42
1
  0
VERTEX
  8
1
 10
0.25
 20
0
 42
1
  0
SEQEND
  8
1
  0
ENDBLK
  8
0
  0
BLOCK
  8
0
  2
TRICONSMALL
 70
0
 10
0
 20
0
  0
POLYLINE
  8
1
 70
1
 66
1
 40
0.25
 41
0.25
  0
VERTEX
  8
1
 10
-0.125
 20
0
 42
1
  0
VERTEX
  8
1
 10
0.125
 20
0
 42
1
  0
SEQEND
  8
1
  0
ENDBLK
  8
0
  0
BLOCK
  8
0
  2
TRICONCIRCLE
 70
0
 10
0
 20
0
  0
CIRCLE
  8
1
 10
0
 20
0
 40
0.5
  0
ENDBLK
  8
0
  0
BLOCK
  8
0
  2
LCBP0
 70
0
 10
0
 20
0
  0
LINE
  8
1
 10
0
 20
-0.46875
 11
0
 21
0.46875
  0
ENDBLK
  8
0
  0
BLOCK
  8
0
  2
LCBP1
 70
0
 10
0
 20
0
  0
LINE
  8
1
 10
0
 20
-0.625
 11
0
 21
0.625
  0
ENDBLK
  8
0
  0
BLOCK
  8
0
  2
LCBP2
 70
0
 10
0
 20
0
  0
LINE
  8
1
 10
0
 20
-0.9375
 11
0
 21
0.9375
  0
ENDBLK
  8
0
  0
BLOCK
  8
0
  2
LCA1
 70
0
 10
0
 20
0
  0
SOLID
  8
1
 62
7 
 10
0
 20
0
 11
-1.4
 21
-0.275
 12
-1.4
 22
0.275
 13
-1.4
 23
0.275
  0
ENDBLK
  8
0
  0
BLOCK
  8
0
  2
LCA2
 70
0
 10
0
 20
0
  0
SOLID
  8
1
 62
7 
 10
0
 20
0
 11
-1.65
 21
-0.525
 12
-1.65
 22
0.525
 13
-1.65
 23
0.525
  0
ENDBLK
  8
0
  0
BLOCK
  8
0
  2
LCA3
 70
0
 10
0
 20
0
  0
SOLID
  8
1
 62
7 
 10
0
 20
0
 11
-2.15
 21
-1.15
 12
-2.15
 22
1.15
 13
-2.15
 23
1.15
  0
ENDBLK
  8
0
  0
BLOCK
  8
0
  2
LCA1R
 70
0
 10
0
 20
0
  0
SOLID
  8
1
 62
7 
 10
0
 20
0
 11
1.4
 21
-0.275
 12
1.4
 22
0.275
 13
1.4
 23
0.275
  0
ENDBLK
  8
0
  0
BLOCK
  8
0
  2
LCA2R
 70
0
 10
0
 20
0
  0
SOLID
  8
1
 62
7 
 10
0
 20
0
 11
1.65
 21
-0.525
 12
1.65
 22
0.525
 13
1.65
 23
0.525
  0
ENDBLK
  8
0
  0
BLOCK
  8
0
  2
LCA3R
 70
0
 10
0
 20
0
  0
SOLID
  8
1
 62
7 
 10
0
 20
0
 11
2.15
 21
-1.15
 12
2.15
 22
1.15
 13
2.15
 23
1.15
  0
ENDBLK
  8
0
  0
BLOCK
  8
0
  2
B4144_00995706
 70
0
 10
0
 20
0
  0
POLYLINE
  8
1
 66
1
  0
VERTEX
  8
1
 10
-21.1974526977539
 20
9
  0
VERTEX
  8
1
 10
-7.1974526977539
 20
9
  0
VERTEX
  8
1
 10
-7.1974526977539
 20
-9
  0
VERTEX
  8
1
 10
-21.1974526977539
 20
-9
  0
VERTEX
  8
1
 10
-21.1974526977539
 20
9
  0
SEQEND
  8
1
  0
TEXT
  8
1
 40
1.68
 41
0.75
  1
R
  7
STANDARD
 72
1
 73
2
 10
6.60184930165608
 20
-0.282638473510741
 11
6.60184930165608
 21
-0.282638473510741
  0
TEXT
  8
1
 40
0.899999942779541
 41
0.75
  1
L
  7
STANDARD
 72
1
 73
2
 10
7.64645756181821
 20
-0.66900561867142
 11
7.64645756181821
 21
-0.66900561867142
  0
TEXT
  8
1
 40
1.61999988555908
 41
0.75
  1
G
  7
STANDARD
 10
-20.7399362182617
 20
5.42979199091593
  0
TEXT
  8
1
 40
1.68
 41
0.75
  1
0V
  7
STANDARD
 72
1
 73
2
 10
18.7804955546061
 20
-6.34946746826172
 11
18.7804955546061
 21
-6.34946746826172
  0
TEXT
  8
1
 40
1.44
 41
0.75
  1
+24V
  7
STANDARD
 72
1
 73
2
 10
18.1225473022461
 20
5.9
 11
18.1225473022461
 21
5.9
  0
TEXT
  8
1
 40
1.68
 41
0.75
  1
3
  7
STANDARD
 72
1
 73
2
 10
-4.85737055460612
 20
-4.34946746826172
 11
-4.85737055460612
 21
-4.34946746826172
  0
TEXT
  8
1
 40
1.68
 41
0.75
  1
2
  7
STANDARD
 72
1
 73
2
 10
-4.77737055460612
 20
-0.349467468261718
 11
-4.77737055460612
 21
-0.349467468261718
  0
TEXT
  8
1
 40
1.68
 41
0.75
  1
4
  7
STANDARD
 72
1
 73
2
 10
-4.85737055460612
 20
3.65053253173828
 11
-4.85737055460612
 21
3.65053253173828
  0
TEXT
  8
1
 40
1.44
 41
0.75
  1
1
  7
STANDARD
 10
-6.74354311625163
 20
6.73979204813639
  0
TEXT
  8
1
 40
1.68
 41
0.75
  1
BU
  7
STANDARD
 72
1
 73
2
 10
1.2133446375529
 20
-4.6
 11
1.2133446375529
 21
-4.6
  0
TEXT
  8
1
 40
1.47
 41
0.75
  1
WH
  7
STANDARD
 72
1
 73
2
 10
1.01065236568451
 20
-0.899999999999999
 11
1.01065236568451
 21
-0.899999999999999
  0
TEXT
  8
1
 40
1.68
 41
0.75
  1
BK
  7
STANDARD
 72
1
 73
2
 10
1.12038166046143
 20
3.4
 11
1.12038166046143
 21
3.4
  0
TEXT
  8
1
 40
1.44
 41
0.75
  1
BN
  7
STANDARD
 73
2
 10
-0.68579090118408
 20
7.4
 11
-0.68579090118408
 21
7.4
  0
POLYLINE
  8
1
 70
1
 66
1
 40
0.5
 41
0.5
  0
VERTEX
  8
1
 10
12.5643021301218
 20
-6.00041981528128
 42
1
  0
VERTEX
  8
1
 10
13.0643021301218
 20
-6.00041981528128
 42
1
  0
SEQEND
  8
1
  0
LINE
  8
1
 10
12.8025473022461
 20
-6
 11
12.8025473022461
 21
2
  0
LINE
  8
1
 10
12.8025473022461
 20
2
 11
-0.197452697753905
 21
2
  0
LINE
  8
1
 10
-0.197452697753905
 20
-6
 11
14.8025473022461
 21
-6
  0
LINE
  8
1
 10
5.80254730224609
 20
-2
 11
-0.197452697753905
 21
-2
  0
LINE
  8
1
 10
-0.197452697753905
 20
6
 11
14.8025473022461
 21
6
  0
POLYLINE
  8
1
 70
1
 66
1
 40
0.5
 41
0.5
  0
VERTEX
  8
1
 10
10.5420519202142
 20
-6.00545759865658
 42
1
  0
VERTEX
  8
1
 10
11.0420519202142
 20
-6.00545759865658
 42
1
  0
SEQEND
  8
1
  0
LINE
  8
1
 10
10.8025473022461
 20
-5.90000000000001
 11
10.8025473022461
 21
-2.1
  0
LINE
  8
1
 10
9.80410678166052
 20
-2.00218556150989
 11
10.8041067816605
 21
-2.00218556150989
  0
LINE
  8
1
 10
-21.1974526977539
 20
2
 11
-14.1974526977539
 21
9
  0
LINE
  8
1
 10
-8.1974526977539
 20
-2
 11
-7.1974526977539
 21
-2
  0
POLYLINE
  8
1
 66
1
  0
VERTEX
  8
1
 10
-10.1974526977539
 20
-1
  0
VERTEX
  8
1
 10
-10.1974526977539
 20
-3
  0
VERTEX
  8
1
 10
-8.1974526977539
 20
-2
  0
VERTEX
  8
1
 10
-10.1974526977539
 20
-1
  0
SEQEND
  8
1
  0
LINE
  8
1
 10
-7.1974526977539
 20
6
 11
-3.19745269775391
 21
6
  0
LINE
  8
1
 10
-7.1974526977539
 20
-6
 11
-3.19745269775391
 21
-6
  0
LINE
  8
1
 10
-7.1974526977539
 20
-2
 11
-3.19745269775391
 21
-2
  0
LINE
  8
1
 10
-7.1974526977539
 20
2
 11
-3.19745269775391
 21
2
  0
LINE
  8
1
 10
-0.947452697753905
 20
6
 11
-0.197452697753905
 21
6
  0
ARC
  8
1
 10
-1.94745269775391
 20
6
 40
1
 50
270
 51
90
  0
SOLID
  8
1
 10
-3.19745269775391
 20
6.25
 11
-1.69745269775391
 21
6.25
 12
-3.19745269775391
 22
5.75
 13
-1.69745269775391
 23
5.75
  0
SOLID
  8
1
 10
-1.69745269775391
 20
5.75
 11
-3.19745269775391
 21
5.75
 12
-3.19745269775391
 22
5.75
 13
-3.19745269775391
 23
6.25
  0
LINE
  8
1
 10
-0.947452697753905
 20
2
 11
-0.197452697753905
 21
2
  0
ARC
  8
1
 10
-1.94745269775391
 20
2
 40
1
 50
270
 51
90
  0
SOLID
  8
1
 10
-3.19745269775391
 20
2.25
 11
-1.69745269775391
 21
2.25
 12
-3.19745269775391
 22
1.75
 13
-1.69745269775391
 23
1.75
  0
SOLID
  8
1
 10
-1.69745269775391
 20
1.75
 11
-3.19745269775391
 21
1.75
 12
-3.19745269775391
 22
1.75
 13
-3.19745269775391
 23
2.25
  0
LINE
  8
1
 10
-0.947452697753905
 20
-2
 11
-0.197452697753905
 21
-2
  0
ARC
  8
1
 10
-1.94745269775391
 20
-2
 40
1
 50
270
 51
90
  0
SOLID
  8
1
 10
-3.19745269775391
 20
-1.75
 11
-1.69745269775391
 21
-1.75
 12
-3.19745269775391
 22
-2.25
 13
-1.69745269775391
 23
-2.25
  0
SOLID
  8
1
 10
-1.69745269775391
 20
-2.25
 11
-3.19745269775391
 21
-2.25
 12
-3.19745269775391
 22
-2.25
 13
-3.19745269775391
 23
-1.75
  0
LINE
  8
1
 10
-0.947452697753905
 20
-6
 11
-0.197452697753905
 21
-6
  0
ARC
  8
1
 10
-1.94745269775391
 20
-6
 40
1
 50
270
 51
90
  0
SOLID
  8
1
 10
-3.19745269775391
 20
-5.75
 11
-1.69745269775391
 21
-5.75
 12
-3.19745269775391
 22
-6.25
 13
-1.69745269775391
 23
-6.25
  0
SOLID
  8
1
 10
-1.69745269775391
 20
-6.25
 11
-3.19745269775391
 21
-6.25
 12
-3.19745269775391
 22
-6.25
 13
-3.19745269775391
 23
-5.75
  0
TEXT
  8
1
 40
1.44
 41
0.75
  1
I
  7
STANDARD
 72
2
 73
2
 10
-14.1974526977539
 20
-2.2
 11
-14.1974526977539
 21
-2.2
  0
LINE
  8
1
 10
-11.7974526977539
 20
-1.4
 11
-14.1974526977539
 21
-3
  0
LINE
  8
1
 10
-14.1974526977539
 20
-3
 11
-11.7974526977539
 21
-3
  0
LINE
  8
1
 10
-14.1974526977539
 20
-1
 11
-14.1974526977539
 21
-3
  0
POLYLINE
  8
1
 66
1
  0
VERTEX
  8
1
 10
5.80254730224609
 20
-1.5
  0
VERTEX
  8
1
 10
9.80254730224609
 20
-1.5
  0
VERTEX
  8
1
 10
9.80254730224609
 20
-2.5
  0
VERTEX
  8
1
 10
5.80254730224609
 20
-2.5
  0
VERTEX
  8
1
 10
5.80254730224609
 20
-1.5
  0
SEQEND
  8
1
  0
ENDBLK
  8
0
  0
ENDSEC
  0
SECTION
  2
ENTITIES
  0
INSERT
  8
1
  2
B4144_00995706
 10
21.1974526977539
 20
9
  0
ENDSEC
  0
EOF
