  0
SECTION
  2
HEADER
  9
$LIMMIN
 10
0
 20
0
  9
$LIMMAX
 10
52.5
 20
74.25
  9
$EXTMIN
 10
0
 20
40
  9
$EXTMAX
 10
0
 20
32
  0
ENDSEC
  0
SECTION
  2
TABLES
  0
TABLE
  2
LTYPE
 70
9
  0
LTYPE
  2
CONTINUOUS
 70
64
  3
Solid line
 72
65
 73
0
 40
0
  0
LTYPE
  2
DASHED
 70
64
  3
__ __ __ __ __ __ __ __ __
 72
65
 73
2
 40
0.75
 49
0.5
 49
-0.25
  0
LTYPE
  2
DOT
 70
64
  3
...........................
 72
65
 73
2
 40
0.25
 49
0
 49
-0.25
  0
LTYPE
  2
DASHDOT
 70
64
  3
__ . __ . __ . __ . __ . __ . 
 72
65
 73
4
 40
1
 49
0.5
 49
-0.25
 49
0
 49
-0.25
  0
ENDTAB
  0
TABLE
  2
LAYER
 70
10
  0
LAYER
  2
1
 70
0
 62
7
  6
CONTINUOUS
  0
LAYER
  2
CONNECTIONS
 70
0
 62
-7
  6
CONTINUOUS
  0
ENDTAB
  0
ENDSEC
  0
SECTION
  2
BLOCKS
  0
BLOCK
  8
0
  2
TRICON
 70
0
 10
0
 20
0
  0
POLYLINE
  8
1
 70
1
 66
1
 40
0.5
 41
0.5
  0
VERTEX
  8
1
 10
-0.25
 20
0
 42
1
  0
VERTEX
  8
1
 10
0.25
 20
0
 42
1
  0
SEQEND
  8
1
  0
ENDBLK
  8
0
  0
BLOCK
  8
0
  2
TRICONSMALL
 70
0
 10
0
 20
0
  0
POLYLINE
  8
1
 70
1
 66
1
 40
0.25
 41
0.25
  0
VERTEX
  8
1
 10
-0.125
 20
0
 42
1
  0
VERTEX
  8
1
 10
0.125
 20
0
 42
1
  0
SEQEND
  8
1
  0
ENDBLK
  8
0
  0
BLOCK
  8
0
  2
TRICONCIRCLE
 70
0
 10
0
 20
0
  0
CIRCLE
  8
1
 10
0
 20
0
 40
0.5
  0
ENDBLK
  8
0
  0
BLOCK
  8
0
  2
LCBP0
 70
0
 10
0
 20
0
  0
LINE
  8
1
 10
0
 20
-0.46875
 11
0
 21
0.46875
  0
ENDBLK
  8
0
  0
BLOCK
  8
0
  2
LCBP1
 70
0
 10
0
 20
0
  0
LINE
  8
1
 10
0
 20
-0.625
 11
0
 21
0.625
  0
ENDBLK
  8
0
  0
BLOCK
  8
0
  2
LCBP2
 70
0
 10
0
 20
0
  0
LINE
  8
1
 10
0
 20
-0.9375
 11
0
 21
0.9375
  0
ENDBLK
  8
0
  0
BLOCK
  8
0
  2
LCA1
 70
0
 10
0
 20
0
  0
SOLID
  8
1
 62
7 
 10
0
 20
0
 11
-1.4
 21
-0.275
 12
-1.4
 22
0.275
 13
-1.4
 23
0.275
  0
ENDBLK
  8
0
  0
BLOCK
  8
0
  2
LCA2
 70
0
 10
0
 20
0
  0
SOLID
  8
1
 62
7 
 10
0
 20
0
 11
-1.65
 21
-0.525
 12
-1.65
 22
0.525
 13
-1.65
 23
0.525
  0
ENDBLK
  8
0
  0
BLOCK
  8
0
  2
LCA3
 70
0
 10
0
 20
0
  0
SOLID
  8
1
 62
7 
 10
0
 20
0
 11
-2.15
 21
-1.15
 12
-2.15
 22
1.15
 13
-2.15
 23
1.15
  0
ENDBLK
  8
0
  0
BLOCK
  8
0
  2
LCA1R
 70
0
 10
0
 20
0
  0
SOLID
  8
1
 62
7 
 10
0
 20
0
 11
1.4
 21
-0.275
 12
1.4
 22
0.275
 13
1.4
 23
0.275
  0
ENDBLK
  8
0
  0
BLOCK
  8
0
  2
LCA2R
 70
0
 10
0
 20
0
  0
SOLID
  8
1
 62
7 
 10
0
 20
0
 11
1.65
 21
-0.525
 12
1.65
 22
0.525
 13
1.65
 23
0.525
  0
ENDBLK
  8
0
  0
BLOCK
  8
0
  2
LCA3R
 70
0
 10
0
 20
0
  0
SOLID
  8
1
 62
7 
 10
0
 20
0
 11
2.15
 21
-1.15
 12
2.15
 22
1.15
 13
2.15
 23
1.15
  0
ENDBLK
  8
0
  0
BLOCK
  8
0
  2
B131829_00995704
 70
0
 10
0
 20
0
  0
LINE
  8
1
 10
-12
 20
-16
 11
-10
 21
-12
  0
POLYLINE
  8
1
 66
1
  0
VERTEX
  8
1
 10
-14
 20
-12
  0
VERTEX
  8
1
 10
-8
 20
-12
  0
VERTEX
  8
1
 10
-8
 20
-16
  0
VERTEX
  8
1
 10
-14
 20
-16
  0
VERTEX
  8
1
 10
-14
 20
-12
  0
SEQEND
  8
1
  0
LINE
  8
1
 10
-12
 20
-12
 11
-10
 21
-8
  0
POLYLINE
  8
1
 66
1
  0
VERTEX
  8
1
 10
-14
 20
-8
  0
VERTEX
  8
1
 10
-8
 20
-8
  0
VERTEX
  8
1
 10
-8
 20
-12
  0
VERTEX
  8
1
 10
-14
 20
-12
  0
VERTEX
  8
1
 10
-14
 20
-8
  0
SEQEND
  8
1
  0
LINE
  8
1
 10
-2
 20
-8
 11
-2
 21
-4
  0
LINE
  8
1
 10
14
 20
4
 11
14
 21
8
  0
LINE
  8
1
 10
-13.9999999999931
 20
-2
 11
-10
 21
-2
  0
LINE
  8
1
 10
-17.4640885929621
 20
-1.99999248164742
 11
-20
 21
-1.99999248164742
  0
LINE
  8
1
 10
-17.4640885929621
 20
7.51835257872813E-06
 11
-17.4640885929621
 21
-3.99999248164742
  0
LINE
  8
1
 10
-17.4640885929621
 20
7.51835257872813E-06
 11
-13.9999869778244
 21
-1.99999248164742
  0
LINE
  8
1
 10
-17.4640885929621
 20
-3.99999248164742
 11
-13.9999869778244
 21
-1.99999248164742
  0
POLYLINE
  8
1
 66
1
  0
VERTEX
  8
1
 10
-8
 20
-12
  0
VERTEX
  8
1
 10
-2
 20
-12
  0
VERTEX
  8
1
 10
-2
 20
-16
  0
VERTEX
  8
1
 10
-8
 20
-16
  0
VERTEX
  8
1
 10
-8
 20
-12
  0
SEQEND
  8
1
  0
LINE
  8
1
 10
-8
 20
-12
 11
-4.53589838486224
 21
-14
  0
LINE
  8
1
 10
-8
 20
-16
 11
-4.53589838486224
 21
-14
  0
POLYLINE
  8
1
 66
1
  0
VERTEX
  8
1
 10
-8
 20
-8
  0
VERTEX
  8
1
 10
-2
 20
-8
  0
VERTEX
  8
1
 10
-2
 20
-12
  0
VERTEX
  8
1
 10
-8
 20
-12
  0
VERTEX
  8
1
 10
-8
 20
-8
  0
SEQEND
  8
1
  0
LINE
  8
1
 10
-8
 20
-8
 11
-4.53589838486224
 21
-10
  0
LINE
  8
1
 10
-8
 20
-12
 11
-4.53589838486224
 21
-10
  0
POLYLINE
  8
1
 66
1
  0
VERTEX
  8
1
 10
19
 20
-2
  0
VERTEX
  8
1
 10
18.5833333333333
 20
-4
  0
VERTEX
  8
1
 10
17.75
 20
0
  0
VERTEX
  8
1
 10
16.9166666666667
 20
-4
  0
VERTEX
  8
1
 10
16.0833333333334
 20
0
  0
VERTEX
  8
1
 10
15.25
 20
-4
  0
VERTEX
  8
1
 10
14.4166666666666
 20
0
  0
VERTEX
  8
1
 10
14
 20
-2
  0
SEQEND
  8
1
  0
ARC
  8
1
 10
15.7238592932174
 20
9.65602820941377
 40
0.894427190999916
 50
47.6225438058942
 51
201.057492628817
  0
ARC
  8
1
 10
15.6633609753731
 20
9.58613525006233
 40
0.824621125123534
 50
196.339530500047
 51
317.303287032121
  0
LINE
  8
1
 10
16.3
 20
9.58333333333333
 11
16.3
 21
9.08333333333333
  0
POLYLINE
  8
1
 66
1
  0
VERTEX
  8
1
 10
15.7
 20
9.58333333333333
  0
VERTEX
  8
1
 10
16.3
 20
9.58333333333333
  0
SEQEND
  8
1
  0
LINE
  8
1
 10
18.65
 20
12.5
 11
19.35
 21
12.5
  0
LINE
  8
1
 10
17.2
 20
12.5
 11
19
 21
13.2
  0
LINE
  8
1
 10
16.5
 20
12.5
 11
17.2
 21
12.5
  0
POLYLINE
  8
1
 66
1
  0
VERTEX
  8
1
 10
14
 20
14
  0
VERTEX
  8
1
 10
20
 20
14
  0
VERTEX
  8
1
 10
20
 20
8
  0
VERTEX
  8
1
 10
14
 20
8
  0
VERTEX
  8
1
 10
14
 20
14
  0
SEQEND
  8
1
  0
LINE
  8
1
 10
14
 20
14
 11
20
 21
8
  0
LINE
  8
1
 10
-4
 20
4
 11
-8
 21
-4
  0
INSERT
  8
1
  2
LCA1R
 10
-4
 20
4
 50
-116.565051177078
  0
LINE
  8
1
 10
-8
 20
4
 11
-8
 21
2
  0
INSERT
  8
1
  2
LCBP1
 10
-8
 20
2
 50
-90
  0
POLYLINE
  8
1
 66
1
  0
VERTEX
  8
1
 10
-10
 20
4
  0
VERTEX
  8
1
 10
-2
 20
4
  0
VERTEX
  8
1
 10
-2
 20
-4
  0
VERTEX
  8
1
 10
-10
 20
-4
  0
VERTEX
  8
1
 10
-10
 20
4
  0
SEQEND
  8
1
  0
LINE
  8
1
 10
-4
 20
-4
 11
-4
 21
-2
  0
INSERT
  8
1
  2
LCBP1
 10
-4
 20
-2
 50
90
  0
LINE
  8
1
 10
4
 20
2
 11
4
 21
4
  0
INSERT
  8
1
  2
LCBP1
 10
4
 20
2
 50
90
  0
POLYLINE
  8
1
 66
1
  0
VERTEX
  8
1
 10
-2
 20
4
  0
VERTEX
  8
1
 10
6
 20
4
  0
VERTEX
  8
1
 10
6
 20
-4
  0
VERTEX
  8
1
 10
-2
 20
-4
  0
VERTEX
  8
1
 10
-2
 20
4
  0
SEQEND
  8
1
  0
LINE
  8
1
 10
4
 20
-4
 11
4
 21
-2
  0
INSERT
  8
1
  2
LCBP1
 10
4
 20
-2
 50
90
  0
LINE
  8
1
 10
0
 20
-4
 11
0
 21
4
  0
INSERT
  8
1
  2
LCA1
 10
0
 20
4
 50
90
  0
LINE
  8
1
 10
8
 20
2
 11
8
 21
4
  0
INSERT
  8
1
  2
LCBP1
 10
8
 20
2
 50
90
  0
POLYLINE
  8
1
 66
1
  0
VERTEX
  8
1
 10
6.01666666666669
 20
4
  0
VERTEX
  8
1
 10
14.0166666666667
 20
4
  0
VERTEX
  8
1
 10
14.0166666666667
 20
-4
  0
VERTEX
  8
1
 10
6.01666666666669
 20
-4
  0
VERTEX
  8
1
 10
6.01666666666669
 20
4
  0
SEQEND
  8
1
  0
LINE
  8
1
 10
12
 20
4
 11
12
 21
-4
  0
INSERT
  8
1
  2
LCA1
 10
12
 20
-4
 50
-90
  0
LINE
  8
1
 10
8
 20
-4
 11
8
 21
-2
  0
INSERT
  8
1
  2
LCBP1
 10
8
 20
-2
 50
90
  0
LINE
  8
1
 10
8
 20
12
 11
8
 21
4
  0
LINE
  8
1
 10
4.46666666666667
 20
6.53333333333333
 11
11.4666666666667
 21
9.53333333333333
  0
INSERT
  8
1
  2
LCA1
 10
11.4666666666667
 20
9.53333333333333
 50
23.1985905136482
  0
ARC
  8
1
 10
-2
 20
8
 40
9
 50
340.528596800055
 51
19.4710505793386
  0
ARC
  8
1
 10
18
 20
8
 40
9
 50
160.52865870751
 51
199.47139531546
  0
TEXT
  8
1
 40
2.475
 41
0.75
  1
1
  7
STANDARD
 72
2
 73
3
 10
8
 20
-5.47428480784098
 11
8
 21
-5.47428480784098
  0
LINE
  8
1
 10
8
 20
-8
 11
8
 21
-4
  0
TEXT
  8
1
 40
2.475
 41
0.75
  1
3
  7
STANDARD
 73
3
 10
12.2347789764404
 20
-5.41875
 11
12.2347789764404
 21
-5.41875
  0
LINE
  8
1
 10
12
 20
-4
 11
12
 21
-8
  0
TEXT
  8
1
 40
2.475
 41
0.75
  1
2
  7
STANDARD
 72
2
 10
8
 20
13.2375
 11
8
 21
13.2375
  0
LINE
  8
1
 10
8
 20
12
 11
8
 21
16
  0
LINE
  8
1
  6
DOT
 10
-20
 20
12
 11
8
 21
12
  0
LINE
  8
1
  6
DOT
 10
-20
 20
-2
 11
-20
 21
12
  0
LINE
  8
1
 10
8
 20
12
 11
12
 21
12
  0
LINE
  8
1
 10
12
 20
12
 11
12
 21
4
  0
POLYLINE
  8
1
 70
1
 66
1
 40
0.5
 41
0.5
  0
VERTEX
  8
1
 10
7.75
 20
12
 42
1
  0
VERTEX
  8
1
 10
8.25
 20
12
 42
1
  0
SEQEND
  8
1
  0
CIRCLE
  8
CONNECTIONS
 10
-14
 20
-13.9
 40
0
  0
CIRCLE
  8
CONNECTIONS
 10
-14
 20
-10
 40
0
  0
CIRCLE
  8
CONNECTIONS
 10
8
 20
-8
 40
0
  0
CIRCLE
  8
CONNECTIONS
 10
12
 20
-8
 40
0
  0
CIRCLE
  8
CONNECTIONS
 10
8
 20
16
 40
0
  0
ENDBLK
  8
0
  0
ENDSEC
  0
SECTION
  2
ENTITIES
  0
INSERT
  8
1
  2
B131829_00995704
 10
20
 20
16
  0
ENDSEC
  0
EOF
