  0
SECTION
  2
HEADER
  9
$LIMMIN
 10
0
 20
0
  9
$LIMMAX
 10
52.5
 20
74.25
  9
$EXTMIN
 10
0
 20
34.6875001748403
  9
$EXTMAX
 10
0
 20
22.1252606550852
  0
ENDSEC
  0
SECTION
  2
TABLES
  0
TABLE
  2
LTYPE
 70
9
  0
LTYPE
  2
CONTINUOUS
 70
64
  3
Solid line
 72
65
 73
0
 40
0
  0
LTYPE
  2
DASHED
 70
64
  3
__ __ __ __ __ __ __ __ __
 72
65
 73
2
 40
0.75
 49
0.5
 49
-0.25
  0
LTYPE
  2
DOT
 70
64
  3
...........................
 72
65
 73
2
 40
0.25
 49
0
 49
-0.25
  0
LTYPE
  2
DASHDOT
 70
64
  3
__ . __ . __ . __ . __ . __ . 
 72
65
 73
4
 40
1
 49
0.5
 49
-0.25
 49
0
 49
-0.25
  0
ENDTAB
  0
TABLE
  2
LAYER
 70
10
  0
LAYER
  2
1
 70
0
 62
7
  6
CONTINUOUS
  0
LAYER
  2
CONNECTIONS
 70
0
 62
-7
  6
CONTINUOUS
  0
ENDTAB
  0
ENDSEC
  0
SECTION
  2
BLOCKS
  0
BLOCK
  8
0
  2
TRICON
 70
0
 10
0
 20
0
  0
POLYLINE
  8
1
 70
1
 66
1
 40
0.5
 41
0.5
  0
VERTEX
  8
1
 10
-0.25
 20
0
 42
1
  0
VERTEX
  8
1
 10
0.25
 20
0
 42
1
  0
SEQEND
  8
1
  0
ENDBLK
  8
0
  0
BLOCK
  8
0
  2
TRICONSMALL
 70
0
 10
0
 20
0
  0
POLYLINE
  8
1
 70
1
 66
1
 40
0.25
 41
0.25
  0
VERTEX
  8
1
 10
-0.125
 20
0
 42
1
  0
VERTEX
  8
1
 10
0.125
 20
0
 42
1
  0
SEQEND
  8
1
  0
ENDBLK
  8
0
  0
BLOCK
  8
0
  2
TRICONCIRCLE
 70
0
 10
0
 20
0
  0
CIRCLE
  8
1
 10
0
 20
0
 40
0.5
  0
ENDBLK
  8
0
  0
BLOCK
  8
0
  2
LCBP0
 70
0
 10
0
 20
0
  0
LINE
  8
1
 10
0
 20
-0.46875
 11
0
 21
0.46875
  0
ENDBLK
  8
0
  0
BLOCK
  8
0
  2
LCBP1
 70
0
 10
0
 20
0
  0
LINE
  8
1
 10
0
 20
-0.625
 11
0
 21
0.625
  0
ENDBLK
  8
0
  0
BLOCK
  8
0
  2
LCBP2
 70
0
 10
0
 20
0
  0
LINE
  8
1
 10
0
 20
-0.9375
 11
0
 21
0.9375
  0
ENDBLK
  8
0
  0
BLOCK
  8
0
  2
LCA1
 70
0
 10
0
 20
0
  0
SOLID
  8
1
 62
7 
 10
0
 20
0
 11
-1.4
 21
-0.275
 12
-1.4
 22
0.275
 13
-1.4
 23
0.275
  0
ENDBLK
  8
0
  0
BLOCK
  8
0
  2
LCA2
 70
0
 10
0
 20
0
  0
SOLID
  8
1
 62
7 
 10
0
 20
0
 11
-1.65
 21
-0.525
 12
-1.65
 22
0.525
 13
-1.65
 23
0.525
  0
ENDBLK
  8
0
  0
BLOCK
  8
0
  2
LCA3
 70
0
 10
0
 20
0
  0
SOLID
  8
1
 62
7 
 10
0
 20
0
 11
-2.15
 21
-1.15
 12
-2.15
 22
1.15
 13
-2.15
 23
1.15
  0
ENDBLK
  8
0
  0
BLOCK
  8
0
  2
LCA1R
 70
0
 10
0
 20
0
  0
SOLID
  8
1
 62
7 
 10
0
 20
0
 11
1.4
 21
-0.275
 12
1.4
 22
0.275
 13
1.4
 23
0.275
  0
ENDBLK
  8
0
  0
BLOCK
  8
0
  2
LCA2R
 70
0
 10
0
 20
0
  0
SOLID
  8
1
 62
7 
 10
0
 20
0
 11
1.65
 21
-0.525
 12
1.65
 22
0.525
 13
1.65
 23
0.525
  0
ENDBLK
  8
0
  0
BLOCK
  8
0
  2
LCA3R
 70
0
 10
0
 20
0
  0
SOLID
  8
1
 62
7 
 10
0
 20
0
 11
2.15
 21
-1.15
 12
2.15
 22
1.15
 13
2.15
 23
1.15
  0
ENDBLK
  8
0
  0
BLOCK
  8
0
  2
B2285_00995686
 70
0
 10
0
 20
0
  0
POLYLINE
  8
1
 66
1
  0
VERTEX
  8
1
 10
-10.7266046365102
 20
-1.56263012886047
  0
VERTEX
  8
1
 10
0.773395363489787
 20
-1.56263012886047
  0
VERTEX
  8
1
 10
0.773395363489787
 20
-6.06263012886047
  0
VERTEX
  8
1
 10
-10.7266046365102
 20
-6.06263012886047
  0
VERTEX
  8
1
 10
-10.7266046365102
 20
-1.56263012886047
  0
SEQEND
  8
1
  0
POLYLINE
  8
1
 66
1
  0
VERTEX
  8
1
 10
-10.7266046365102
 20
4.43736987113953
  0
VERTEX
  8
1
 10
0.773395363489787
 20
4.43736987113953
  0
VERTEX
  8
1
 10
0.773395363489787
 20
-0.0626301288604729
  0
VERTEX
  8
1
 10
-10.7266046365102
 20
-0.0626301288604729
  0
VERTEX
  8
1
 10
-10.7266046365102
 20
4.43736987113953
  0
SEQEND
  8
1
  0
LINE
  8
1
 10
-8.22662697438748
 20
8.93734753326226
 11
-13.2266046365102
 21
3.93736987113948
  0
POLYLINE
  8
1
 66
1
  0
VERTEX
  8
1
 10
-13.2266046365102
 20
8.93736987113953
  0
VERTEX
  8
1
 10
2.77339536348979
 20
8.93736987113953
  0
VERTEX
  8
1
 10
2.77339536348979
 20
-11.0626301288605
  0
VERTEX
  8
1
 10
-13.2266046365102
 20
-11.0626301288605
  0
VERTEX
  8
1
 10
-13.2266046365102
 20
8.93736987113953
  0
SEQEND
  8
1
  0
TEXT
  8
1
 40
1.125
 41
0.75
  1
NPN
  7
STANDARD
 72
1
 73
2
 10
-5.39372135798138
 20
-4.94091773033144
 11
-5.39372135798138
 21
-4.94091773033144
  0
TEXT
  8
1
 40
1.125
 41
0.75
  1
PNP
  7
STANDARD
 72
1
 73
2
 10
-5.39372135798137
 20
-2.94091773033141
 11
-5.39372135798137
 21
-2.94091773033141
  0
TEXT
  8
1
 40
1.12499992847443
 41
0.75
  1
NPN
  7
STANDARD
 73
2
 10
-6.61189239819846
 20
0.859082269668562
 11
-6.61189239819846
 21
0.859082269668562
  0
TEXT
  8
1
 40
1.12499992847443
 41
0.75
  1
PNP
  7
STANDARD
 73
2
 10
-6.60321181615195
 20
3.05908226966857
 11
-6.60321181615195
 21
3.05908226966857
  0
TEXT
  8
1
 40
1.8
 41
0.75
  1
4
  7
STANDARD
 10
3.37339536348978
 20
-6.41315064430237
  0
TEXT
  8
1
 40
1.8
 41
0.75
  1
3
  7
STANDARD
 10
3.37339536348978
 20
-2.41315064430237
  0
TEXT
  8
1
 40
1.8
 41
0.75
  1
2
  7
STANDARD
 10
3.37339536348978
 20
1.58684935569764
  0
TEXT
  8
1
 40
1.8
 41
0.75
  1
1
  7
STANDARD
 10
3.37339536348978
 20
5.58684935569765
  0
TEXT
  8
1
 40
1.8
 41
0.75
  1
+24V
  7
STANDARD
 10
9.65648655891418
 20
4.01210961341859
  0
TEXT
  8
1
 40
1.8
 41
0.75
  1
0V
  7
STANDARD
 10
9.5764626344045
 20
-7.96263012886047
  0
SOLID
  8
1
 10
5.77339536348978
 20
-2.81263012886047
 11
7.27339536348978
 21
-2.81263012886047
 12
5.77339536348978
 22
-3.31263012886047
 13
7.27339536348978
 23
-3.31263012886047
  0
SOLID
  8
1
 10
7.27339536348978
 20
-3.31263012886047
 11
5.77339536348978
 21
-3.31263012886047
 12
5.77339536348978
 22
-3.31263012886047
 13
5.77339536348978
 23
-2.81263012886047
  0
LINE
  8
1
 10
0.773395363489785
 20
-3.06263012886047
 11
5.77339536348978
 21
-3.06263012886047
  0
SOLID
  8
1
 10
5.77339536348978
 20
1.18736987113953
 11
7.27339536348978
 21
1.18736987113953
 12
5.77339536348978
 22
0.687369871139526
 13
7.27339536348978
 23
0.687369871139526
  0
SOLID
  8
1
 10
7.27339536348978
 20
0.687369871139526
 11
5.77339536348978
 21
0.687369871139526
 12
5.77339536348978
 22
0.687369871139526
 13
5.77339536348978
 23
1.18736987113953
  0
LINE
  8
1
 10
0.773395363489785
 20
0.937369871139526
 11
5.77339536348978
 21
0.937369871139526
  0
LINE
  8
1
 10
2.77339536348979
 20
4.93736987113953
 11
5.77339536348978
 21
4.93736987113953
  0
SOLID
  8
1
 10
5.77339536348978
 20
5.18736987113953
 11
7.27339536348978
 21
5.18736987113953
 12
5.77339536348978
 22
4.68736987113953
 13
7.27339536348978
 23
4.68736987113953
  0
SOLID
  8
1
 10
7.27339536348978
 20
4.68736987113953
 11
5.77339536348978
 21
4.68736987113953
 12
5.77339536348978
 22
4.68736987113953
 13
5.77339536348978
 23
5.18736987113953
  0
LINE
  8
1
 10
2.77339536348979
 20
-7.06263012886047
 11
5.77339536348978
 21
-7.06263012886047
  0
SOLID
  8
1
 10
5.77339536348978
 20
-6.81263012886047
 11
7.27339536348978
 21
-6.81263012886047
 12
5.77339536348978
 22
-7.31263012886047
 13
7.27339536348978
 23
-7.31263012886047
  0
SOLID
  8
1
 10
7.27339536348978
 20
-7.31263012886047
 11
5.77339536348978
 21
-7.31263012886047
 12
5.77339536348978
 22
-7.31263012886047
 13
5.77339536348978
 23
-6.81263012886047
  0
TEXT
  8
1
 40
1.8
 41
0.75
  1
P
  7
STANDARD
 72
2
 10
-14.5094589074453
 20
8.51211024920146
 11
-14.5094589074453
 21
8.51211024920146
  0
LINE
  8
1
 10
-13.2266046365102
 20
7.43736987113953
 11
-12.2266046365102
 21
6.93736987113953
  0
LINE
  8
1
 10
-12.2266046365102
 20
6.93736987113953
 11
-13.2266046365102
 21
6.43736987113953
  0
LINE
  8
1
 10
-13.2266046365102
 20
7.43736987113953
 11
-13.2266046365102
 21
6.43736987113953
  0
LINE
  8
1
 10
-16.2266046365102
 20
6.93736987113953
 11
-13.2266046365102
 21
6.93736987113953
  0
CIRCLE
  8
CONNECTIONS
 10
-16.2266046365102
 20
6.93736987113953
 40
0
  0
ENDBLK
  8
0
  0
ENDSEC
  0
SECTION
  2
ENTITIES
  0
INSERT
  8
1
  2
B2285_00995686
 10
17.3437500476837
 20
11.0626301288605
  0
ENDSEC
  0
EOF
