  0
SECTION
  2
HEADER
  9
$LIMMIN
 10
0
 20
0
  9
$LIMMAX
 10
52.5
 20
74.25
  9
$EXTMIN
 10
0
 20
158
  9
$EXTMAX
 10
0
 20
88
  0
ENDSEC
  0
SECTION
  2
TABLES
  0
TABLE
  2
LTYPE
 70
9
  0
LTYPE
  2
CONTINUOUS
 70
64
  3
Solid line
 72
65
 73
0
 40
0
  0
LTYPE
  2
DASHED
 70
64
  3
__ __ __ __ __ __ __ __ __
 72
65
 73
2
 40
0.75
 49
0.5
 49
-0.25
  0
LTYPE
  2
DOT
 70
64
  3
...........................
 72
65
 73
2
 40
0.25
 49
0
 49
-0.25
  0
LTYPE
  2
DASHDOT
 70
64
  3
__ . __ . __ . __ . __ . __ . 
 72
65
 73
4
 40
1
 49
0.5
 49
-0.25
 49
0
 49
-0.25
  0
ENDTAB
  0
TABLE
  2
LAYER
 70
10
  0
LAYER
  2
1
 70
0
 62
7
  6
CONTINUOUS
  0
LAYER
  2
CONNECTIONS
 70
0
 62
-7
  6
CONTINUOUS
  0
ENDTAB
  0
ENDSEC
  0
SECTION
  2
BLOCKS
  0
BLOCK
  8
0
  2
TRICON
 70
0
 10
0
 20
0
  0
POLYLINE
  8
1
 70
1
 66
1
 40
0.5
 41
0.5
  0
VERTEX
  8
1
 10
-0.25
 20
0
 42
1
  0
VERTEX
  8
1
 10
0.25
 20
0
 42
1
  0
SEQEND
  8
1
  0
ENDBLK
  8
0
  0
BLOCK
  8
0
  2
TRICONSMALL
 70
0
 10
0
 20
0
  0
POLYLINE
  8
1
 70
1
 66
1
 40
0.25
 41
0.25
  0
VERTEX
  8
1
 10
-0.125
 20
0
 42
1
  0
VERTEX
  8
1
 10
0.125
 20
0
 42
1
  0
SEQEND
  8
1
  0
ENDBLK
  8
0
  0
BLOCK
  8
0
  2
TRICONCIRCLE
 70
0
 10
0
 20
0
  0
CIRCLE
  8
1
 10
0
 20
0
 40
0.5
  0
ENDBLK
  8
0
  0
BLOCK
  8
0
  2
LCBP0
 70
0
 10
0
 20
0
  0
LINE
  8
1
 10
0
 20
-0.46875
 11
0
 21
0.46875
  0
ENDBLK
  8
0
  0
BLOCK
  8
0
  2
LCBP1
 70
0
 10
0
 20
0
  0
LINE
  8
1
 10
0
 20
-0.625
 11
0
 21
0.625
  0
ENDBLK
  8
0
  0
BLOCK
  8
0
  2
LCBP2
 70
0
 10
0
 20
0
  0
LINE
  8
1
 10
0
 20
-0.9375
 11
0
 21
0.9375
  0
ENDBLK
  8
0
  0
BLOCK
  8
0
  2
LCA1
 70
0
 10
0
 20
0
  0
SOLID
  8
1
 62
7 
 10
0
 20
0
 11
-1.4
 21
-0.275
 12
-1.4
 22
0.275
 13
-1.4
 23
0.275
  0
ENDBLK
  8
0
  0
BLOCK
  8
0
  2
LCA2
 70
0
 10
0
 20
0
  0
SOLID
  8
1
 62
7 
 10
0
 20
0
 11
-1.65
 21
-0.525
 12
-1.65
 22
0.525
 13
-1.65
 23
0.525
  0
ENDBLK
  8
0
  0
BLOCK
  8
0
  2
LCA3
 70
0
 10
0
 20
0
  0
SOLID
  8
1
 62
7 
 10
0
 20
0
 11
-2.15
 21
-1.15
 12
-2.15
 22
1.15
 13
-2.15
 23
1.15
  0
ENDBLK
  8
0
  0
BLOCK
  8
0
  2
LCA1R
 70
0
 10
0
 20
0
  0
SOLID
  8
1
 62
7 
 10
0
 20
0
 11
1.4
 21
-0.275
 12
1.4
 22
0.275
 13
1.4
 23
0.275
  0
ENDBLK
  8
0
  0
BLOCK
  8
0
  2
LCA2R
 70
0
 10
0
 20
0
  0
SOLID
  8
1
 62
7 
 10
0
 20
0
 11
1.65
 21
-0.525
 12
1.65
 22
0.525
 13
1.65
 23
0.525
  0
ENDBLK
  8
0
  0
BLOCK
  8
0
  2
LCA3R
 70
0
 10
0
 20
0
  0
SOLID
  8
1
 62
7 
 10
0
 20
0
 11
2.15
 21
-1.15
 12
2.15
 22
1.15
 13
2.15
 23
1.15
  0
ENDBLK
  8
0
  0
BLOCK
  8
0
  2
B3487_00995666
 70
0
 10
0
 20
0
  0
POLYLINE
  8
1
 66
1
  0
VERTEX
  8
1
 10
-79
 20
44
  0
VERTEX
  8
1
 10
79
 20
44
  0
VERTEX
  8
1
 10
79
 20
-44
  0
VERTEX
  8
1
 10
-79
 20
-44
  0
VERTEX
  8
1
 10
-79
 20
44
  0
SEQEND
  8
1
  0
TEXT
  8
1
 40
7.19943294525146
 41
0.75
  1
YE
  7
STANDARD
 72
2
 10
39.9992783864339
 20
29.5997164726257
 11
39.9992783864339
 21
29.5997164726257
  0
TEXT
  8
1
 40
7.2
 41
0.75
  1
RD
  7
STANDARD
 72
2
 10
-20
 20
29.6
 11
-20
 21
29.6
  0
TEXT
  8
1
 40
7.19999885559082
 41
0.75
  1
2
  7
STANDARD
 73
2
 10
-11.4
 20
-24.901039759318
 11
-11.4
 21
-24.901039759318
  0
TEXT
  8
1
 40
7.19999885559082
 41
0.75
  1
4
  7
STANDARD
 73
2
 10
-11.4
 20
-8.90103975931802
 11
-11.4
 21
-8.90103975931802
  0
TEXT
  8
1
 40
7.19999885559082
 41
0.75
  1
6
  7
STANDARD
 73
2
 10
-11.4
 20
7.09896024068198
 11
-11.4
 21
7.09896024068198
  0
TEXT
  8
1
 40
7.19999885559082
 41
0.75
  1
1
  7
STANDARD
 72
2
 73
2
 10
-47.7390958150228
 20
-24.901039759318
 11
-47.7390958150228
 21
-24.901039759318
  0
TEXT
  8
1
 40
7.19999885559082
 41
0.75
  1
3
  7
STANDARD
 72
2
 73
2
 10
-47.7390958150228
 20
-8.90103975931802
 11
-47.7390958150228
 21
-8.90103975931802
  0
TEXT
  8
1
 40
7.19999885559082
 41
0.75
  1
5
  7
STANDARD
 72
2
 73
2
 10
-47.7390958150228
 20
7.09896024068198
 11
-47.7390958150228
 21
7.09896024068198
  0
TEXT
  8
1
 40
7.19999885559082
 41
0.75
  1
2
  7
STANDARD
 73
2
 10
48
 20
-24.901039759318
 11
48
 21
-24.901039759318
  0
TEXT
  8
1
 40
7.19999885559082
 41
0.75
  1
4
  7
STANDARD
 73
2
 10
48.0006713867188
 20
-8.90103975931802
 11
48.0006713867188
 21
-8.90103975931802
  0
TEXT
  8
1
 40
7.19999885559082
 41
0.75
  1
6
  7
STANDARD
 73
2
 10
48.0006713867188
 20
7.09841728210449
 11
48.0006713867188
 21
7.09841728210449
  0
TEXT
  8
1
 40
7.19999885559082
 41
0.75
  1
1
  7
STANDARD
 72
2
 73
2
 10
11.6609041849772
 20
-24.901039759318
 11
11.6609041849772
 21
-24.901039759318
  0
TEXT
  8
1
 40
7.19999885559082
 41
0.75
  1
3
  7
STANDARD
 72
2
 73
2
 10
11.6609041849772
 20
-8.90103975931802
 11
11.6609041849772
 21
-8.90103975931802
  0
TEXT
  8
1
 40
7.19999885559082
 41
0.75
  1
5
  7
STANDARD
 72
2
 73
2
 10
11.6609041849772
 20
7.09896024068198
 11
11.6609041849772
 21
7.09896024068198
  0
POLYLINE
  8
1
 66
1
  0
VERTEX
  8
1
 10
48
 20
-34
  0
VERTEX
  8
1
 10
48
 20
-19
  0
VERTEX
  8
1
 10
45
 20
-16
  0
VERTEX
  8
1
 10
48
 20
-13
  0
VERTEX
  8
1
 10
48
 20
18
  0
VERTEX
  8
1
 10
16
 20
18
  0
SEQEND
  8
1
  0
POLYLINE
  8
1
 66
1
  0
VERTEX
  8
1
 10
16
 20
18
  0
VERTEX
  8
1
 10
12
 20
14
  0
VERTEX
  8
1
 10
12
 20
-30
  0
VERTEX
  8
1
 10
16
 20
-34
  0
VERTEX
  8
1
 10
48
 20
-34
  0
SEQEND
  8
1
  0
POLYLINE
  8
1
 66
1
  0
VERTEX
  8
1
 10
-12
 20
-34
  0
VERTEX
  8
1
 10
-12
 20
-3
  0
VERTEX
  8
1
 10
-15
 20
0
  0
VERTEX
  8
1
 10
-12
 20
3
  0
VERTEX
  8
1
 10
-12
 20
18
  0
VERTEX
  8
1
 10
-44
 20
18
  0
VERTEX
  8
1
 10
-48
 20
14
  0
VERTEX
  8
1
 10
-48
 20
-30
  0
VERTEX
  8
1
 10
-44
 20
-34
  0
VERTEX
  8
1
 10
-12
 20
-34
  0
SEQEND
  8
1
  0
CIRCLE
  8
1
 10
38
 20
-24
 40
5
  0
CIRCLE
  8
1
 10
38
 20
8
 40
5
  0
CIRCLE
  8
1
 10
22
 20
8
 40
5
  0
CIRCLE
  8
1
 10
22
 20
-24
 40
5
  0
CIRCLE
  8
1
 10
38
 20
-8
 40
5
  0
CIRCLE
  8
1
 10
22
 20
-8
 40
5
  0
CIRCLE
  8
1
 10
-22
 20
8
 40
5
  0
CIRCLE
  8
1
 10
-38
 20
8
 40
5
  0
CIRCLE
  8
1
 10
-22
 20
-24
 40
5
  0
CIRCLE
  8
1
 10
-38
 20
-24
 40
5
  0
CIRCLE
  8
1
 10
-22
 20
-8
 40
5
  0
CIRCLE
  8
1
 10
-38
 20
-8
 40
5
  0
POLYLINE
  8
1
  6
DASHED
 66
1
  0
VERTEX
  8
1
 10
-64
 20
24
  0
VERTEX
  8
1
 10
64
 20
24
  0
VERTEX
  8
1
 10
64
 20
-40
  0
VERTEX
  8
1
 10
-64
 20
-40
  0
VERTEX
  8
1
 10
-64
 20
24
  0
SEQEND
  8
1
  0
ENDBLK
  8
0
  0
ENDSEC
  0
SECTION
  2
ENTITIES
  0
INSERT
  8
1
  2
B3487_00995666
 10
79
 20
44
  0
ENDSEC
  0
EOF
