  0
SECTION
  2
HEADER
  9
$LIMMIN
 10
0
 20
0
  9
$LIMMAX
 10
52.5
 20
74.25
  9
$EXTMIN
 10
0
 20
105.409621498811
  9
$EXTMAX
 10
0
 20
104.23020362854
  0
ENDSEC
  0
SECTION
  2
TABLES
  0
TABLE
  2
LTYPE
 70
9
  0
LTYPE
  2
CONTINUOUS
 70
64
  3
Solid line
 72
65
 73
0
 40
0
  0
LTYPE
  2
DASHED
 70
64
  3
__ __ __ __ __ __ __ __ __
 72
65
 73
2
 40
0.75
 49
0.5
 49
-0.25
  0
LTYPE
  2
DOT
 70
64
  3
...........................
 72
65
 73
2
 40
0.25
 49
0
 49
-0.25
  0
LTYPE
  2
DASHDOT
 70
64
  3
__ . __ . __ . __ . __ . __ . 
 72
65
 73
4
 40
1
 49
0.5
 49
-0.25
 49
0
 49
-0.25
  0
ENDTAB
  0
TABLE
  2
LAYER
 70
10
  0
LAYER
  2
1
 70
0
 62
7
  6
CONTINUOUS
  0
LAYER
  2
CONNECTIONS
 70
0
 62
-7
  6
CONTINUOUS
  0
ENDTAB
  0
ENDSEC
  0
SECTION
  2
BLOCKS
  0
BLOCK
  8
0
  2
TRICON
 70
0
 10
0
 20
0
  0
POLYLINE
  8
1
 70
1
 66
1
 40
0.5
 41
0.5
  0
VERTEX
  8
1
 10
-0.25
 20
0
 42
1
  0
VERTEX
  8
1
 10
0.25
 20
0
 42
1
  0
SEQEND
  8
1
  0
ENDBLK
  8
0
  0
BLOCK
  8
0
  2
TRICONSMALL
 70
0
 10
0
 20
0
  0
POLYLINE
  8
1
 70
1
 66
1
 40
0.25
 41
0.25
  0
VERTEX
  8
1
 10
-0.125
 20
0
 42
1
  0
VERTEX
  8
1
 10
0.125
 20
0
 42
1
  0
SEQEND
  8
1
  0
ENDBLK
  8
0
  0
BLOCK
  8
0
  2
TRICONCIRCLE
 70
0
 10
0
 20
0
  0
CIRCLE
  8
1
 10
0
 20
0
 40
0.5
  0
ENDBLK
  8
0
  0
BLOCK
  8
0
  2
LCBP0
 70
0
 10
0
 20
0
  0
LINE
  8
1
 10
0
 20
-0.46875
 11
0
 21
0.46875
  0
ENDBLK
  8
0
  0
BLOCK
  8
0
  2
LCBP1
 70
0
 10
0
 20
0
  0
LINE
  8
1
 10
0
 20
-0.625
 11
0
 21
0.625
  0
ENDBLK
  8
0
  0
BLOCK
  8
0
  2
LCBP2
 70
0
 10
0
 20
0
  0
LINE
  8
1
 10
0
 20
-0.9375
 11
0
 21
0.9375
  0
ENDBLK
  8
0
  0
BLOCK
  8
0
  2
LCA1
 70
0
 10
0
 20
0
  0
SOLID
  8
1
 62
7 
 10
0
 20
0
 11
-1.4
 21
-0.275
 12
-1.4
 22
0.275
 13
-1.4
 23
0.275
  0
ENDBLK
  8
0
  0
BLOCK
  8
0
  2
LCA2
 70
0
 10
0
 20
0
  0
SOLID
  8
1
 62
7 
 10
0
 20
0
 11
-1.65
 21
-0.525
 12
-1.65
 22
0.525
 13
-1.65
 23
0.525
  0
ENDBLK
  8
0
  0
BLOCK
  8
0
  2
LCA3
 70
0
 10
0
 20
0
  0
SOLID
  8
1
 62
7 
 10
0
 20
0
 11
-2.15
 21
-1.15
 12
-2.15
 22
1.15
 13
-2.15
 23
1.15
  0
ENDBLK
  8
0
  0
BLOCK
  8
0
  2
LCA1R
 70
0
 10
0
 20
0
  0
SOLID
  8
1
 62
7 
 10
0
 20
0
 11
1.4
 21
-0.275
 12
1.4
 22
0.275
 13
1.4
 23
0.275
  0
ENDBLK
  8
0
  0
BLOCK
  8
0
  2
LCA2R
 70
0
 10
0
 20
0
  0
SOLID
  8
1
 62
7 
 10
0
 20
0
 11
1.65
 21
-0.525
 12
1.65
 22
0.525
 13
1.65
 23
0.525
  0
ENDBLK
  8
0
  0
BLOCK
  8
0
  2
LCA3R
 70
0
 10
0
 20
0
  0
SOLID
  8
1
 62
7 
 10
0
 20
0
 11
2.15
 21
-1.15
 12
2.15
 22
1.15
 13
2.15
 23
1.15
  0
ENDBLK
  8
0
  0
BLOCK
  8
0
  2
B2223_00995662
 70
0
 10
0
 20
0
  0
POLYLINE
  8
1
 66
1
  0
VERTEX
  8
1
 10
-50.4906183589634
 20
50.8515605926514
  0
VERTEX
  8
1
 10
49.5093816410366
 20
50.8515605926514
  0
VERTEX
  8
1
 10
49.5093816410366
 20
-49.1484394073486
  0
VERTEX
  8
1
 10
-50.4906183589634
 20
-49.1484394073486
  0
VERTEX
  8
1
 10
-50.4906183589634
 20
50.8515605926514
  0
SEQEND
  8
1
  0
TEXT
  8
1
 40
10.8
 41
0.75
  1
V
  7
STANDARD
 72
1
 73
2
 10
-0.494938630773305
 20
41.6317710876465
 11
-0.494938630773305
 21
41.6317710876465
  0
TEXT
  8
1
 40
10.8
 41
0.75
  1
+
  7
STANDARD
 72
1
 73
2
 10
-34.3103683182733
 20
23.3
 11
-34.3103683182733
 21
23.3
  0
TEXT
  8
1
 40
10.8
 41
0.75
  1
U
  7
STANDARD
 72
1
 73
2
 10
-44.5103683182733
 20
-0.475444748534311
 11
-44.5103683182733
 21
-0.475444748534311
  0
TEXT
  8
1
 40
10.8
 41
0.75
  1
1
  7
STANDARD
 72
1
 73
2
 10
-34.3737048813837
 20
-26.1762068112691
 11
-34.3737048813837
 21
-26.1762068112691
  0
TEXT
  8
1
 40
10.8
 41
0.75
  1
PE
  7
STANDARD
 72
1
 73
2
 10
-0.531627939324324
 20
-41.6317710876465
 11
-0.531627939324324
 21
-41.6317710876465
  0
TEXT
  8
1
 40
10.8
 41
0.75
  1
2
  7
STANDARD
 72
1
 73
2
 10
33.3293684447218
 20
-26.076759966073
 11
33.3293684447218
 21
-26.076759966073
  0
TEXT
  8
1
 40
10.8
 41
0.75
  1
W
  7
STANDARD
 72
1
 73
2
 10
42.8437016516066
 20
0.0719155692422149
 11
42.8437016516066
 21
0.0719155692422149
  0
TEXT
  8
1
 40
10.8
 41
0.75
  1
-
  7
STANDARD
 72
1
 73
2
 10
34.3204910567267
 20
23.3
 11
34.3204910567267
 21
23.3
  0
POLYLINE
  8
1
 66
1
  0
VERTEX
  8
1
 10
-6.69529588232587
 20
30.5126608557337
  0
VERTEX
  8
1
 10
-7.84207332087083
 20
33.5001182205248
  0
VERTEX
  8
1
 10
-16.804445415244
 20
30.0597859048899
  0
VERTEX
  8
1
 10
-15.657667976699
 20
27.0723285400989
  0
SEQEND
  8
1
  0
CIRCLE
  8
1
 10
-0.490638931999548
 20
-13.1484394073375
 40
5
  0
CIRCLE
  8
1
 10
-14.4693643660103
 20
0.851560592651358
 40
5
  0
CIRCLE
  8
1
 10
-0.490600787934883
 20
14.8515605926432
 40
5
  0
CIRCLE
  8
1
 10
13.4598433768361
 20
0.851560592651355
 40
5
  0
CIRCLE
  8
1
 10
-15.9256472015078
 20
-14.583468249893
 40
3
  0
CIRCLE
  8
1
 10
14.944410483581
 20
-14.583468249893
 40
3
  0
CIRCLE
  8
1
 10
-15.9256472015078
 20
16.2865894351958
 40
3
  0
CIRCLE
  8
1
 10
14.944410483581
 20
16.2865894351958
 40
3
  0
CIRCLE
  8
1
 10
-0.490618358963407
 20
0.851560592651358
 40
30
  0
ENDBLK
  8
0
  0
ENDSEC
  0
SECTION
  2
ENTITIES
  0
INSERT
  8
1
  2
B2223_00995662
 10
52.7048117030796
 20
52.11510181427
  0
ENDSEC
  0
EOF
