  0
SECTION
  2
HEADER
  9
$LIMMIN
 10
0
 20
0
  9
$LIMMAX
 10
52.5
 20
74.25
  9
$EXTMIN
 10
0
 20
100
  9
$EXTMAX
 10
0
 20
101.430201721191
  0
ENDSEC
  0
SECTION
  2
TABLES
  0
TABLE
  2
LTYPE
 70
9
  0
LTYPE
  2
CONTINUOUS
 70
64
  3
Solid line
 72
65
 73
0
 40
0
  0
LTYPE
  2
DASHED
 70
64
  3
__ __ __ __ __ __ __ __ __
 72
65
 73
2
 40
0.75
 49
0.5
 49
-0.25
  0
LTYPE
  2
DOT
 70
64
  3
...........................
 72
65
 73
2
 40
0.25
 49
0
 49
-0.25
  0
LTYPE
  2
DASHDOT
 70
64
  3
__ . __ . __ . __ . __ . __ . 
 72
65
 73
4
 40
1
 49
0.5
 49
-0.25
 49
0
 49
-0.25
  0
ENDTAB
  0
TABLE
  2
LAYER
 70
10
  0
LAYER
  2
1
 70
0
 62
7
  6
CONTINUOUS
  0
LAYER
  2
CONNECTIONS
 70
0
 62
-7
  6
CONTINUOUS
  0
ENDTAB
  0
ENDSEC
  0
SECTION
  2
BLOCKS
  0
BLOCK
  8
0
  2
TRICON
 70
0
 10
0
 20
0
  0
POLYLINE
  8
1
 70
1
 66
1
 40
0.5
 41
0.5
  0
VERTEX
  8
1
 10
-0.25
 20
0
 42
1
  0
VERTEX
  8
1
 10
0.25
 20
0
 42
1
  0
SEQEND
  8
1
  0
ENDBLK
  8
0
  0
BLOCK
  8
0
  2
TRICONSMALL
 70
0
 10
0
 20
0
  0
POLYLINE
  8
1
 70
1
 66
1
 40
0.25
 41
0.25
  0
VERTEX
  8
1
 10
-0.125
 20
0
 42
1
  0
VERTEX
  8
1
 10
0.125
 20
0
 42
1
  0
SEQEND
  8
1
  0
ENDBLK
  8
0
  0
BLOCK
  8
0
  2
TRICONCIRCLE
 70
0
 10
0
 20
0
  0
CIRCLE
  8
1
 10
0
 20
0
 40
0.5
  0
ENDBLK
  8
0
  0
BLOCK
  8
0
  2
LCBP0
 70
0
 10
0
 20
0
  0
LINE
  8
1
 10
0
 20
-0.46875
 11
0
 21
0.46875
  0
ENDBLK
  8
0
  0
BLOCK
  8
0
  2
LCBP1
 70
0
 10
0
 20
0
  0
LINE
  8
1
 10
0
 20
-0.625
 11
0
 21
0.625
  0
ENDBLK
  8
0
  0
BLOCK
  8
0
  2
LCBP2
 70
0
 10
0
 20
0
  0
LINE
  8
1
 10
0
 20
-0.9375
 11
0
 21
0.9375
  0
ENDBLK
  8
0
  0
BLOCK
  8
0
  2
LCA1
 70
0
 10
0
 20
0
  0
SOLID
  8
1
 62
7 
 10
0
 20
0
 11
-1.4
 21
-0.275
 12
-1.4
 22
0.275
 13
-1.4
 23
0.275
  0
ENDBLK
  8
0
  0
BLOCK
  8
0
  2
LCA2
 70
0
 10
0
 20
0
  0
SOLID
  8
1
 62
7 
 10
0
 20
0
 11
-1.65
 21
-0.525
 12
-1.65
 22
0.525
 13
-1.65
 23
0.525
  0
ENDBLK
  8
0
  0
BLOCK
  8
0
  2
LCA3
 70
0
 10
0
 20
0
  0
SOLID
  8
1
 62
7 
 10
0
 20
0
 11
-2.15
 21
-1.15
 12
-2.15
 22
1.15
 13
-2.15
 23
1.15
  0
ENDBLK
  8
0
  0
BLOCK
  8
0
  2
LCA1R
 70
0
 10
0
 20
0
  0
SOLID
  8
1
 62
7 
 10
0
 20
0
 11
1.4
 21
-0.275
 12
1.4
 22
0.275
 13
1.4
 23
0.275
  0
ENDBLK
  8
0
  0
BLOCK
  8
0
  2
LCA2R
 70
0
 10
0
 20
0
  0
SOLID
  8
1
 62
7 
 10
0
 20
0
 11
1.65
 21
-0.525
 12
1.65
 22
0.525
 13
1.65
 23
0.525
  0
ENDBLK
  8
0
  0
BLOCK
  8
0
  2
LCA3R
 70
0
 10
0
 20
0
  0
SOLID
  8
1
 62
7 
 10
0
 20
0
 11
2.15
 21
-1.15
 12
2.15
 22
1.15
 13
2.15
 23
1.15
  0
ENDBLK
  8
0
  0
BLOCK
  8
0
  2
B2359_00995660
 70
0
 10
0
 20
0
  0
POLYLINE
  8
1
 66
1
  0
VERTEX
  8
1
 10
-50
 20
50.2515605926513
  0
VERTEX
  8
1
 10
50
 20
50.2515605926513
  0
VERTEX
  8
1
 10
50
 20
-49.7484394073486
  0
VERTEX
  8
1
 10
-50
 20
-49.7484394073486
  0
VERTEX
  8
1
 10
-50
 20
50.2515605926513
  0
SEQEND
  8
1
  0
TEXT
  8
1
 40
10.8
 41
0.75
  1
C
  7
STANDARD
 73
3
 10
6.16331069144898
 20
-32.4484394073486
 11
6.16331069144898
 21
-32.4484394073486
  0
TEXT
  8
1
 40
10.8
 41
0.75
  1
B
  7
STANDARD
 72
2
 73
3
 10
-3.40864054361979
 20
-32.4238841558829
 11
-3.40864054361979
 21
-32.4238841558829
  0
TEXT
  8
1
 40
10.8
 41
0.75
  1
A
  7
STANDARD
 72
2
 73
3
 10
-26.283096488958
 20
-16.0251993734216
 11
-26.283096488958
 21
-16.0251993734216
  0
TEXT
  8
1
 40
10.8
 41
0.75
  1
1
  7
STANDARD
 72
2
 73
2
 10
-28.4086405436198
 20
14.1
 11
-28.4086405436198
 21
14.1
  0
TEXT
  8
1
 40
10.8
 41
0.75
  1
PE
  7
STANDARD
 72
1
 10
-0.00432027180989714
 20
35.1484394073486
 11
-0.00432027180989714
 21
35.1484394073486
  0
TEXT
  8
1
 40
10.8
 41
0.75
  1
4
  7
STANDARD
 73
2
 10
18.9366634368897
 20
37.8237931887309
 11
18.9366634368897
 21
37.8237931887309
  0
TEXT
  8
1
 40
10.8
 41
0.75
  1
3
  7
STANDARD
 73
2
 10
29.6
 20
14.1
 11
29.6
 21
14.1
  0
TEXT
  8
1
 40
10.8
 41
0.75
  1
D
  7
STANDARD
 73
3
 10
28.7232105948799
 20
-14.8765238381064
 11
28.7232105948799
 21
-14.8765238381064
  0
LINE
  8
1
 10
3
 20
6.25156059265135
 11
20
 21
32.2515605926514
  0
CIRCLE
  8
1
 10
-6.4
 20
-17.7484394073487
 40
3
  0
CIRCLE
  8
1
 10
6.79999999999998
 20
-17.3484394073487
 40
3
  0
CIRCLE
  8
1
 10
16.4
 20
-9.34843940734863
 40
3
  0
CIRCLE
  8
1
 10
-16.4
 20
-9.34843940734863
 40
3
  0
CIRCLE
  8
1
 10
17
 20
8.25156059265135
 40
5
  0
CIRCLE
  8
1
 10
-17
 20
8.25156059265135
 40
5
  0
CIRCLE
  8
1
 10
0
 20
0.251560592651354
 40
5
  0
CIRCLE
  8
1
 10
0
 20
19.2515605926514
 40
5
  0
CIRCLE
  8
1
 10
0
 20
0.251560592651354
 40
30
  0
ENDBLK
  8
0
  0
ENDSEC
  0
SECTION
  2
ENTITIES
  0
INSERT
  8
1
  2
B2359_00995660
 10
50
 20
50.7151008605957
  0
ENDSEC
  0
EOF
