  0
SECTION
  2
HEADER
  9
$LIMMIN
 10
0
 20
0
  9
$LIMMAX
 10
52.5
 20
74.25
  9
$EXTMIN
 10
0
 20
101.792955658662
  9
$EXTMAX
 10
0
 20
104.23020362854
  0
ENDSEC
  0
SECTION
  2
TABLES
  0
TABLE
  2
LTYPE
 70
9
  0
LTYPE
  2
CONTINUOUS
 70
64
  3
Solid line
 72
65
 73
0
 40
0
  0
LTYPE
  2
DASHED
 70
64
  3
__ __ __ __ __ __ __ __ __
 72
65
 73
2
 40
0.75
 49
0.5
 49
-0.25
  0
LTYPE
  2
DOT
 70
64
  3
...........................
 72
65
 73
2
 40
0.25
 49
0
 49
-0.25
  0
LTYPE
  2
DASHDOT
 70
64
  3
__ . __ . __ . __ . __ . __ . 
 72
65
 73
4
 40
1
 49
0.5
 49
-0.25
 49
0
 49
-0.25
  0
ENDTAB
  0
TABLE
  2
LAYER
 70
10
  0
LAYER
  2
1
 70
0
 62
7
  6
CONTINUOUS
  0
LAYER
  2
CONNECTIONS
 70
0
 62
-7
  6
CONTINUOUS
  0
ENDTAB
  0
ENDSEC
  0
SECTION
  2
BLOCKS
  0
BLOCK
  8
0
  2
TRICON
 70
0
 10
0
 20
0
  0
POLYLINE
  8
1
 70
1
 66
1
 40
0.5
 41
0.5
  0
VERTEX
  8
1
 10
-0.25
 20
0
 42
1
  0
VERTEX
  8
1
 10
0.25
 20
0
 42
1
  0
SEQEND
  8
1
  0
ENDBLK
  8
0
  0
BLOCK
  8
0
  2
TRICONSMALL
 70
0
 10
0
 20
0
  0
POLYLINE
  8
1
 70
1
 66
1
 40
0.25
 41
0.25
  0
VERTEX
  8
1
 10
-0.125
 20
0
 42
1
  0
VERTEX
  8
1
 10
0.125
 20
0
 42
1
  0
SEQEND
  8
1
  0
ENDBLK
  8
0
  0
BLOCK
  8
0
  2
TRICONCIRCLE
 70
0
 10
0
 20
0
  0
CIRCLE
  8
1
 10
0
 20
0
 40
0.5
  0
ENDBLK
  8
0
  0
BLOCK
  8
0
  2
LCBP0
 70
0
 10
0
 20
0
  0
LINE
  8
1
 10
0
 20
-0.46875
 11
0
 21
0.46875
  0
ENDBLK
  8
0
  0
BLOCK
  8
0
  2
LCBP1
 70
0
 10
0
 20
0
  0
LINE
  8
1
 10
0
 20
-0.625
 11
0
 21
0.625
  0
ENDBLK
  8
0
  0
BLOCK
  8
0
  2
LCBP2
 70
0
 10
0
 20
0
  0
LINE
  8
1
 10
0
 20
-0.9375
 11
0
 21
0.9375
  0
ENDBLK
  8
0
  0
BLOCK
  8
0
  2
LCA1
 70
0
 10
0
 20
0
  0
SOLID
  8
1
 62
7 
 10
0
 20
0
 11
-1.4
 21
-0.275
 12
-1.4
 22
0.275
 13
-1.4
 23
0.275
  0
ENDBLK
  8
0
  0
BLOCK
  8
0
  2
LCA2
 70
0
 10
0
 20
0
  0
SOLID
  8
1
 62
7 
 10
0
 20
0
 11
-1.65
 21
-0.525
 12
-1.65
 22
0.525
 13
-1.65
 23
0.525
  0
ENDBLK
  8
0
  0
BLOCK
  8
0
  2
LCA3
 70
0
 10
0
 20
0
  0
SOLID
  8
1
 62
7 
 10
0
 20
0
 11
-2.15
 21
-1.15
 12
-2.15
 22
1.15
 13
-2.15
 23
1.15
  0
ENDBLK
  8
0
  0
BLOCK
  8
0
  2
LCA1R
 70
0
 10
0
 20
0
  0
SOLID
  8
1
 62
7 
 10
0
 20
0
 11
1.4
 21
-0.275
 12
1.4
 22
0.275
 13
1.4
 23
0.275
  0
ENDBLK
  8
0
  0
BLOCK
  8
0
  2
LCA2R
 70
0
 10
0
 20
0
  0
SOLID
  8
1
 62
7 
 10
0
 20
0
 11
1.65
 21
-0.525
 12
1.65
 22
0.525
 13
1.65
 23
0.525
  0
ENDBLK
  8
0
  0
BLOCK
  8
0
  2
LCA3R
 70
0
 10
0
 20
0
  0
SOLID
  8
1
 62
7 
 10
0
 20
0
 11
2.15
 21
-1.15
 12
2.15
 22
1.15
 13
2.15
 23
1.15
  0
ENDBLK
  8
0
  0
BLOCK
  8
0
  2
B2799_00995654
 70
0
 10
0
 20
0
  0
TEXT
  8
1
 40
10.8
 41
0.75
  1
-
  7
STANDARD
 72
1
 73
2
 10
0.488394638981741
 20
41.6317710876465
 11
0.488394638981741
 21
41.6317710876465
  0
TEXT
  8
1
 40
10.8
 41
0.75
  1
W
  7
STANDARD
 72
1
 73
2
 10
-33.3270350485183
 20
23.3
 11
-33.3270350485183
 21
23.3
  0
TEXT
  8
1
 40
10.8
 41
0.75
  1
2
  7
STANDARD
 72
1
 73
2
 10
-43.5270350485183
 20
-0.475444748534311
 11
-43.5270350485183
 21
-0.475444748534311
  0
TEXT
  8
1
 40
10.8
 41
0.75
  1
PE
  7
STANDARD
 72
1
 73
2
 10
-33.3903716116286
 20
-26.1762068112691
 11
-33.3903716116286
 21
-26.1762068112691
  0
TEXT
  8
1
 40
10.8
 41
0.75
  1
1
  7
STANDARD
 72
1
 73
2
 10
0.451705330430722
 20
-41.6317710876465
 11
0.451705330430722
 21
-41.6317710876465
  0
TEXT
  8
1
 40
10.8
 41
0.75
  1
U
  7
STANDARD
 72
1
 73
2
 10
34.3127017144768
 20
-26.076759966073
 11
34.3127017144768
 21
-26.076759966073
  0
TEXT
  8
1
 40
10.8
 41
0.75
  1
+
  7
STANDARD
 72
1
 73
2
 10
43.8270349213617
 20
0.0719155692422149
 11
43.8270349213617
 21
0.0719155692422149
  0
TEXT
  8
1
 40
10.8
 41
0.75
  1
V
  7
STANDARD
 72
1
 73
2
 10
35.3038243264817
 20
23.3
 11
35.3038243264817
 21
23.3
  0
ARC
  8
1
 10
15.9718573245809
 20
14.8515605926514
 40
14.6372811683044
 50
187.853313301978
 51
252.181111085477
  0
ARC
  8
1
 10
-15.0072850892084
 20
14.8515605926514
 40
14.6372811683044
 50
287.818888914523
 51
352.146686698022
  0
ARC
  8
1
 10
0.492714910791638
 20
12.8515605926514
 40
1
 50
0
 51
180
  0
ARC
  8
1
 10
-10.5072850892084
 20
-0.148439407348642
 40
1
 50
90
 51
270
  0
ARC
  8
1
 10
11.4927149107916
 20
-0.148439407348642
 40
1
 50
270
 51
90
  0
ARC
  8
1
 10
0.492714910791638
 20
36.8515605926514
 40
39.560080889705
 50
253.855661219717
 51
286.144338780283
  0
LINE
  8
1
 10
-23.5072850892084
 20
10.8515605926514
 11
-28.2566766314738
 21
8.22025545176676
  0
LINE
  8
1
 10
-25.3184307072085
 20
15.629269356651
 11
-23.5072850892084
 21
10.8515605926514
  0
LINE
  8
1
 10
24.4927149107916
 20
10.8515605926514
 11
29.357625974859
 21
8.2568274004493
  0
LINE
  8
1
 10
26.1963156186516
 20
15.5734449923401
 11
24.4927149107916
 21
10.8515605926514
  0
CIRCLE
  8
1
 10
-12.9272850892084
 20
14.2715605926514
 40
5
  0
CIRCLE
  8
1
 10
-18.5072850892084
 20
0.851560592651358
 40
3
  0
CIRCLE
  8
1
 10
0.492714910791638
 20
-18.1484394073486
 40
3
  0
CIRCLE
  8
1
 10
19.4927149107916
 20
0.851560592651358
 40
3
  0
CIRCLE
  8
1
 10
0.492714910791638
 20
19.8515605926514
 40
3
  0
CIRCLE
  8
1
 10
13.8927149107916
 20
-12.5484394073486
 40
5
  0
CIRCLE
  8
1
 10
-12.9423284790783
 20
-12.5834537025518
 40
5
  0
CIRCLE
  8
1
 10
13.9277561779237
 20
14.2865770105966
 40
5
  0
CIRCLE
  8
1
 10
0.492714910791638
 20
0.851560592651358
 40
30
  0
ENDBLK
  8
0
  0
ENDSEC
  0
SECTION
  2
ENTITIES
  0
INSERT
  8
1
  2
B2799_00995654
 10
50.896478306168
 20
52.11510181427
  0
ENDSEC
  0
EOF
