  0
SECTION
  2
HEADER
  9
$LIMMIN
 10
0
 20
0
  9
$LIMMAX
 10
52.5
 20
74.25
  9
$EXTMIN
 10
0
 20
60
  9
$EXTMAX
 10
0
 20
44
  0
ENDSEC
  0
SECTION
  2
TABLES
  0
TABLE
  2
LTYPE
 70
9
  0
LTYPE
  2
CONTINUOUS
 70
64
  3
Solid line
 72
65
 73
0
 40
0
  0
LTYPE
  2
DASHED
 70
64
  3
__ __ __ __ __ __ __ __ __
 72
65
 73
2
 40
0.75
 49
0.5
 49
-0.25
  0
LTYPE
  2
DOT
 70
64
  3
...........................
 72
65
 73
2
 40
0.25
 49
0
 49
-0.25
  0
LTYPE
  2
DASHDOT
 70
64
  3
__ . __ . __ . __ . __ . __ . 
 72
65
 73
4
 40
1
 49
0.5
 49
-0.25
 49
0
 49
-0.25
  0
ENDTAB
  0
TABLE
  2
LAYER
 70
10
  0
LAYER
  2
1
 70
0
 62
7
  6
CONTINUOUS
  0
LAYER
  2
CONNECTIONS
 70
0
 62
-7
  6
CONTINUOUS
  0
ENDTAB
  0
ENDSEC
  0
SECTION
  2
BLOCKS
  0
BLOCK
  8
0
  2
TRICON
 70
0
 10
0
 20
0
  0
POLYLINE
  8
1
 70
1
 66
1
 40
0.5
 41
0.5
  0
VERTEX
  8
1
 10
-0.25
 20
0
 42
1
  0
VERTEX
  8
1
 10
0.25
 20
0
 42
1
  0
SEQEND
  8
1
  0
ENDBLK
  8
0
  0
BLOCK
  8
0
  2
TRICONSMALL
 70
0
 10
0
 20
0
  0
POLYLINE
  8
1
 70
1
 66
1
 40
0.25
 41
0.25
  0
VERTEX
  8
1
 10
-0.125
 20
0
 42
1
  0
VERTEX
  8
1
 10
0.125
 20
0
 42
1
  0
SEQEND
  8
1
  0
ENDBLK
  8
0
  0
BLOCK
  8
0
  2
TRICONCIRCLE
 70
0
 10
0
 20
0
  0
CIRCLE
  8
1
 10
0
 20
0
 40
0.5
  0
ENDBLK
  8
0
  0
BLOCK
  8
0
  2
LCBP0
 70
0
 10
0
 20
0
  0
LINE
  8
1
 10
0
 20
-0.46875
 11
0
 21
0.46875
  0
ENDBLK
  8
0
  0
BLOCK
  8
0
  2
LCBP1
 70
0
 10
0
 20
0
  0
LINE
  8
1
 10
0
 20
-0.625
 11
0
 21
0.625
  0
ENDBLK
  8
0
  0
BLOCK
  8
0
  2
LCBP2
 70
0
 10
0
 20
0
  0
LINE
  8
1
 10
0
 20
-0.9375
 11
0
 21
0.9375
  0
ENDBLK
  8
0
  0
BLOCK
  8
0
  2
LCA1
 70
0
 10
0
 20
0
  0
SOLID
  8
1
 62
7 
 10
0
 20
0
 11
-1.4
 21
-0.275
 12
-1.4
 22
0.275
 13
-1.4
 23
0.275
  0
ENDBLK
  8
0
  0
BLOCK
  8
0
  2
LCA2
 70
0
 10
0
 20
0
  0
SOLID
  8
1
 62
7 
 10
0
 20
0
 11
-1.65
 21
-0.525
 12
-1.65
 22
0.525
 13
-1.65
 23
0.525
  0
ENDBLK
  8
0
  0
BLOCK
  8
0
  2
LCA3
 70
0
 10
0
 20
0
  0
SOLID
  8
1
 62
7 
 10
0
 20
0
 11
-2.15
 21
-1.15
 12
-2.15
 22
1.15
 13
-2.15
 23
1.15
  0
ENDBLK
  8
0
  0
BLOCK
  8
0
  2
LCA1R
 70
0
 10
0
 20
0
  0
SOLID
  8
1
 62
7 
 10
0
 20
0
 11
1.4
 21
-0.275
 12
1.4
 22
0.275
 13
1.4
 23
0.275
  0
ENDBLK
  8
0
  0
BLOCK
  8
0
  2
LCA2R
 70
0
 10
0
 20
0
  0
SOLID
  8
1
 62
7 
 10
0
 20
0
 11
1.65
 21
-0.525
 12
1.65
 22
0.525
 13
1.65
 23
0.525
  0
ENDBLK
  8
0
  0
BLOCK
  8
0
  2
LCA3R
 70
0
 10
0
 20
0
  0
SOLID
  8
1
 62
7 
 10
0
 20
0
 11
2.15
 21
-1.15
 12
2.15
 22
1.15
 13
2.15
 23
1.15
  0
ENDBLK
  8
0
  0
BLOCK
  8
0
  2
B3555_00995653
 70
0
 10
0
 20
0
  0
TEXT
  8
1
 40
5.4
 41
0.75
  1
5
  7
STANDARD
 72
1
 73
2
 10
2.86384709676106
 20
-5
 11
2.86384709676106
 21
-5
  0
TEXT
  8
1
 40
5.4
 41
0.75
  1
7
  7
STANDARD
 72
1
 73
2
 10
15.2276941935221
 20
-5
 11
15.2276941935221
 21
-5
  0
TEXT
  8
1
 40
5.4
 41
0.75
  1
8
  7
STANDARD
 72
1
 73
2
 10
20.8638470967611
 20
-5
 11
20.8638470967611
 21
-5
  0
TEXT
  8
1
 40
5.4
 41
0.75
  1
6
  7
STANDARD
 72
1
 73
2
 10
8.86384709676106
 20
-5
 11
8.86384709676106
 21
-5
  0
TEXT
  8
1
 40
5.4
 41
0.75
  1
4
  7
STANDARD
 72
1
 73
2
 10
-3.00000000000001
 20
-5
 11
-3.00000000000001
 21
-5
  0
TEXT
  8
1
 40
5.4
 41
0.75
  1
3
  7
STANDARD
 72
1
 73
2
 10
-9.13615290323894
 20
-5
 11
-9.13615290323894
 21
-5
  0
TEXT
  8
1
 40
5.4
 41
0.75
  1
1
  7
STANDARD
 72
1
 73
2
 10
-21
 20
-5
 11
-21
 21
-5
  0
TEXT
  8
1
 40
5.4
 41
0.75
  1
2
  7
STANDARD
 72
1
 73
2
 10
-15
 20
-5
 11
-15
 21
-5
  0
POLYLINE
  8
1
 66
1
  0
VERTEX
  8
1
 10
-16
 20
10
  0
VERTEX
  8
1
 10
16
 20
10
  0
VERTEX
  8
1
 10
16
 20
16
  0
VERTEX
  8
1
 10
8
 20
16
  0
VERTEX
  8
1
 10
8
 20
22
  0
VERTEX
  8
1
 10
-8
 20
22
  0
VERTEX
  8
1
 10
-8
 20
16
  0
VERTEX
  8
1
 10
-16
 20
16
  0
VERTEX
  8
1
 10
-16
 20
10
  0
SEQEND
  8
1
  0
SOLID
  8
1
 10
-22.5
 20
-10
 11
-19.5
 21
-10
 12
-22.5
 22
-18
 13
-19.5
 23
-18
  0
SOLID
  8
1
 10
-19.5
 20
-18
 11
-22.5
 21
-18
 12
-22.5
 22
-18
 13
-22.5
 23
-10
  0
SOLID
  8
1
 10
13.5
 20
-10
 11
16.5
 21
-10
 12
13.5
 22
-18
 13
16.5
 23
-18
  0
SOLID
  8
1
 10
16.5
 20
-18
 11
13.5
 21
-18
 12
13.5
 22
-18
 13
13.5
 23
-10
  0
SOLID
  8
1
 10
19.5
 20
-10
 11
22.5
 21
-10
 12
19.5
 22
-18
 13
22.5
 23
-18
  0
SOLID
  8
1
 10
22.5
 20
-18
 11
19.5
 21
-18
 12
19.5
 22
-18
 13
19.5
 23
-10
  0
SOLID
  8
1
 10
7.5
 20
-10
 11
10.5
 21
-10
 12
7.5
 22
-18
 13
10.5
 23
-18
  0
SOLID
  8
1
 10
10.5
 20
-18
 11
7.5
 21
-18
 12
7.5
 22
-18
 13
7.5
 23
-10
  0
SOLID
  8
1
 10
1.5
 20
-10
 11
4.5
 21
-10
 12
1.5
 22
-18
 13
4.5
 23
-18
  0
SOLID
  8
1
 10
4.5
 20
-18
 11
1.5
 21
-18
 12
1.5
 22
-18
 13
1.5
 23
-10
  0
SOLID
  8
1
 10
-4.5
 20
-10
 11
-1.5
 21
-10
 12
-4.5
 22
-18
 13
-1.5
 23
-18
  0
SOLID
  8
1
 10
-1.5
 20
-18
 11
-4.5
 21
-18
 12
-4.5
 22
-18
 13
-4.5
 23
-10
  0
SOLID
  8
1
 10
-10.5
 20
-10
 11
-7.5
 21
-10
 12
-10.5
 22
-18
 13
-7.5
 23
-18
  0
SOLID
  8
1
 10
-7.5
 20
-18
 11
-10.5
 21
-18
 12
-10.5
 22
-18
 13
-10.5
 23
-10
  0
SOLID
  8
1
 10
-16.5
 20
-10
 11
-13.5
 21
-10
 12
-16.5
 22
-18
 13
-13.5
 23
-18
  0
SOLID
  8
1
 10
-13.5
 20
-18
 11
-16.5
 21
-18
 12
-16.5
 22
-18
 13
-16.5
 23
-10
  0
POLYLINE
  8
1
 66
1
  0
VERTEX
  8
1
 10
-30
 20
-22
  0
VERTEX
  8
1
 10
-22.5
 20
-22
  0
VERTEX
  8
1
 10
-22.5
 20
-18
  0
VERTEX
  8
1
 10
-19.5
 20
-18
  0
VERTEX
  8
1
 10
-19.5
 20
-22
  0
VERTEX
  8
1
 10
-16.5
 20
-22
  0
VERTEX
  8
1
 10
-16.5
 20
-18
  0
VERTEX
  8
1
 10
-13.5
 20
-18
  0
VERTEX
  8
1
 10
-13.5
 20
-22
  0
VERTEX
  8
1
 10
-10.5
 20
-22
  0
VERTEX
  8
1
 10
-10.5
 20
-18
  0
VERTEX
  8
1
 10
-7.5
 20
-18
  0
VERTEX
  8
1
 10
-7.5
 20
-22
  0
VERTEX
  8
1
 10
-4.5
 20
-22
  0
VERTEX
  8
1
 10
-4.5
 20
-18
  0
VERTEX
  8
1
 10
-1.5
 20
-18
  0
VERTEX
  8
1
 10
-1.5
 20
-22
  0
VERTEX
  8
1
 10
1.5
 20
-22
  0
VERTEX
  8
1
 10
1.5
 20
-18
  0
VERTEX
  8
1
 10
4.5
 20
-18
  0
VERTEX
  8
1
 10
4.5
 20
-22
  0
VERTEX
  8
1
 10
7.5
 20
-22
  0
VERTEX
  8
1
 10
7.5
 20
-18.5
  0
VERTEX
  8
1
 10
7.5
 20
-18
  0
VERTEX
  8
1
 10
10.5
 20
-18
  0
VERTEX
  8
1
 10
10.5
 20
-22
  0
VERTEX
  8
1
 10
13.5
 20
-22
  0
VERTEX
  8
1
 10
13.5
 20
-18
  0
VERTEX
  8
1
 10
16.5
 20
-18
  0
VERTEX
  8
1
 10
16.5
 20
-22
  0
VERTEX
  8
1
 10
19.5
 20
-22
  0
VERTEX
  8
1
 10
19.5
 20
-18
  0
VERTEX
  8
1
 10
22.5
 20
-18
  0
VERTEX
  8
1
 10
22.5
 20
-22
  0
VERTEX
  8
1
 10
30
 20
-22
  0
VERTEX
  8
1
 10
30
 20
10
  0
VERTEX
  8
1
 10
-30
 20
10
  0
VERTEX
  8
1
 10
-30
 20
-22
  0
SEQEND
  8
1
  0
ENDBLK
  8
0
  0
ENDSEC
  0
SECTION
  2
ENTITIES
  0
INSERT
  8
1
  2
B3555_00995653
 10
30
 20
22
  0
ENDSEC
  0
EOF
