  0
SECTION
  2
HEADER
  9
$LIMMIN
 10
0
 20
0
  9
$LIMMAX
 10
52.5
 20
74.25
  9
$EXTMIN
 10
0
 20
100
  9
$EXTMAX
 10
0
 20
100.238733336793
  0
ENDSEC
  0
SECTION
  2
TABLES
  0
TABLE
  2
LTYPE
 70
9
  0
LTYPE
  2
CONTINUOUS
 70
64
  3
Solid line
 72
65
 73
0
 40
0
  0
LTYPE
  2
DASHED
 70
64
  3
__ __ __ __ __ __ __ __ __
 72
65
 73
2
 40
0.75
 49
0.5
 49
-0.25
  0
LTYPE
  2
DOT
 70
64
  3
...........................
 72
65
 73
2
 40
0.25
 49
0
 49
-0.25
  0
LTYPE
  2
DASHDOT
 70
64
  3
__ . __ . __ . __ . __ . __ . 
 72
65
 73
4
 40
1
 49
0.5
 49
-0.25
 49
0
 49
-0.25
  0
ENDTAB
  0
TABLE
  2
LAYER
 70
10
  0
LAYER
  2
1
 70
0
 62
7
  6
CONTINUOUS
  0
LAYER
  2
CONNECTIONS
 70
0
 62
-7
  6
CONTINUOUS
  0
ENDTAB
  0
ENDSEC
  0
SECTION
  2
BLOCKS
  0
BLOCK
  8
0
  2
TRICON
 70
0
 10
0
 20
0
  0
POLYLINE
  8
1
 70
1
 66
1
 40
0.5
 41
0.5
  0
VERTEX
  8
1
 10
-0.25
 20
0
 42
1
  0
VERTEX
  8
1
 10
0.25
 20
0
 42
1
  0
SEQEND
  8
1
  0
ENDBLK
  8
0
  0
BLOCK
  8
0
  2
TRICONSMALL
 70
0
 10
0
 20
0
  0
POLYLINE
  8
1
 70
1
 66
1
 40
0.25
 41
0.25
  0
VERTEX
  8
1
 10
-0.125
 20
0
 42
1
  0
VERTEX
  8
1
 10
0.125
 20
0
 42
1
  0
SEQEND
  8
1
  0
ENDBLK
  8
0
  0
BLOCK
  8
0
  2
TRICONCIRCLE
 70
0
 10
0
 20
0
  0
CIRCLE
  8
1
 10
0
 20
0
 40
0.5
  0
ENDBLK
  8
0
  0
BLOCK
  8
0
  2
LCBP0
 70
0
 10
0
 20
0
  0
LINE
  8
1
 10
0
 20
-0.46875
 11
0
 21
0.46875
  0
ENDBLK
  8
0
  0
BLOCK
  8
0
  2
LCBP1
 70
0
 10
0
 20
0
  0
LINE
  8
1
 10
0
 20
-0.625
 11
0
 21
0.625
  0
ENDBLK
  8
0
  0
BLOCK
  8
0
  2
LCBP2
 70
0
 10
0
 20
0
  0
LINE
  8
1
 10
0
 20
-0.9375
 11
0
 21
0.9375
  0
ENDBLK
  8
0
  0
BLOCK
  8
0
  2
LCA1
 70
0
 10
0
 20
0
  0
SOLID
  8
1
 62
7 
 10
0
 20
0
 11
-1.4
 21
-0.275
 12
-1.4
 22
0.275
 13
-1.4
 23
0.275
  0
ENDBLK
  8
0
  0
BLOCK
  8
0
  2
LCA2
 70
0
 10
0
 20
0
  0
SOLID
  8
1
 62
7 
 10
0
 20
0
 11
-1.65
 21
-0.525
 12
-1.65
 22
0.525
 13
-1.65
 23
0.525
  0
ENDBLK
  8
0
  0
BLOCK
  8
0
  2
LCA3
 70
0
 10
0
 20
0
  0
SOLID
  8
1
 62
7 
 10
0
 20
0
 11
-2.15
 21
-1.15
 12
-2.15
 22
1.15
 13
-2.15
 23
1.15
  0
ENDBLK
  8
0
  0
BLOCK
  8
0
  2
LCA1R
 70
0
 10
0
 20
0
  0
SOLID
  8
1
 62
7 
 10
0
 20
0
 11
1.4
 21
-0.275
 12
1.4
 22
0.275
 13
1.4
 23
0.275
  0
ENDBLK
  8
0
  0
BLOCK
  8
0
  2
LCA2R
 70
0
 10
0
 20
0
  0
SOLID
  8
1
 62
7 
 10
0
 20
0
 11
1.65
 21
-0.525
 12
1.65
 22
0.525
 13
1.65
 23
0.525
  0
ENDBLK
  8
0
  0
BLOCK
  8
0
  2
LCA3R
 70
0
 10
0
 20
0
  0
SOLID
  8
1
 62
7 
 10
0
 20
0
 11
2.15
 21
-1.15
 12
2.15
 22
1.15
 13
2.15
 23
1.15
  0
ENDBLK
  8
0
  0
BLOCK
  8
0
  2
B2239_00995652
 70
0
 10
0
 20
0
  0
POLYLINE
  8
1
 66
1
  0
VERTEX
  8
1
 10
-50
 20
49.8806333316036
  0
VERTEX
  8
1
 10
50
 20
49.8806333316036
  0
VERTEX
  8
1
 10
50
 20
-50.1193666683964
  0
VERTEX
  8
1
 10
-50
 20
-50.1193666683964
  0
VERTEX
  8
1
 10
-50
 20
49.8806333316036
  0
SEQEND
  8
1
  0
TEXT
  8
1
 40
11.4
 41
0.75
  1
1
  7
STANDARD
 72
2
 73
2
 10
-29.1854299487399
 20
-12.6990116918056
 11
-29.1854299487399
 21
-12.6990116918056
  0
TEXT
  8
1
 40
11.4
 41
0.75
  1
2
  7
STANDARD
 72
2
 10
-28.7453298521708
 20
14.3775121463008
 11
-28.7453298521708
 21
14.3775121463008
  0
TEXT
  8
1
 40
11.4
 41
0.75
  1
3
  7
STANDARD
 72
1
 73
2
 10
-0.804320271809956
 20
39.0536279904179
 11
-0.804320271809956
 21
39.0536279904179
  0
TEXT
  8
1
 40
11.4
 41
0.75
  1
4
  7
STANDARD
 10
28.1255440546618
 20
14.8007521802279
  0
TEXT
  8
1
 40
11.4
 41
0.75
  1
5
  7
STANDARD
 10
30.2
 20
-17.5224878536992
  0
CIRCLE
  8
1
 10
13.2
 20
39.8806333316036
 40
6.4
  0
LINE
  8
1
 10
10
 20
39.0806333316036
 11
16.4
 21
39.0806333316036
  0
LINE
  8
1
 10
8.4
 20
41.4806333316036
 11
18
 21
41.4806333316036
  0
LINE
  8
1
 10
13.2
 20
41.4806333316036
 11
13.2
 21
44.6806333316036
  0
LINE
  8
1
 10
11.6
 20
36.6806333316036
 11
14.8
 21
36.6806333316036
  0
POLYLINE
  8
1
 66
1
  0
VERTEX
  8
1
 10
12
 20
-27.7193666683964
  0
VERTEX
  8
1
 10
12
 20
-20.5193666683964
  0
VERTEX
  8
1
 10
-12
 20
-20.5193666683964
  0
VERTEX
  8
1
 10
-12
 20
-27.7193666683964
  0
SEQEND
  8
1
  0
CIRCLE
  8
1
 10
-16
 20
-9.91936666839641
 40
7.6
  0
CIRCLE
  8
1
 10
-16
 20
9.68063333160359
 40
7.6
  0
CIRCLE
  8
1
 10
0
 20
19.8806333316036
 40
7.6
  0
CIRCLE
  8
1
 10
16
 20
9.68063333160359
 40
7.6
  0
CIRCLE
  8
1
 10
16
 20
-9.91936666839641
 40
7.6
  0
CIRCLE
  8
1
 10
0
 20
-0.119366668396414
 40
30
  0
ENDBLK
  8
0
  0
ENDSEC
  0
SECTION
  2
ENTITIES
  0
INSERT
  8
1
  2
B2239_00995652
 10
50
 20
50.1193666683964
  0
ENDSEC
  0
EOF
