  0
SECTION
  2
HEADER
  9
$LIMMIN
 10
0
 20
0
  9
$LIMMAX
 10
52.5
 20
74.25
  9
$EXTMIN
 10
0
 20
193.191020965576
  9
$EXTMAX
 10
0
 20
46
  0
ENDSEC
  0
SECTION
  2
TABLES
  0
TABLE
  2
LTYPE
 70
9
  0
LTYPE
  2
CONTINUOUS
 70
64
  3
Solid line
 72
65
 73
0
 40
0
  0
LTYPE
  2
DASHED
 70
64
  3
__ __ __ __ __ __ __ __ __
 72
65
 73
2
 40
0.75
 49
0.5
 49
-0.25
  0
LTYPE
  2
DOT
 70
64
  3
...........................
 72
65
 73
2
 40
0.25
 49
0
 49
-0.25
  0
LTYPE
  2
DASHDOT
 70
64
  3
__ . __ . __ . __ . __ . __ . 
 72
65
 73
4
 40
1
 49
0.5
 49
-0.25
 49
0
 49
-0.25
  0
ENDTAB
  0
TABLE
  2
LAYER
 70
10
  0
LAYER
  2
1
 70
0
 62
7
  6
CONTINUOUS
  0
LAYER
  2
CONNECTIONS
 70
0
 62
-7
  6
CONTINUOUS
  0
ENDTAB
  0
ENDSEC
  0
SECTION
  2
BLOCKS
  0
BLOCK
  8
0
  2
TRICON
 70
0
 10
0
 20
0
  0
POLYLINE
  8
1
 70
1
 66
1
 40
0.5
 41
0.5
  0
VERTEX
  8
1
 10
-0.25
 20
0
 42
1
  0
VERTEX
  8
1
 10
0.25
 20
0
 42
1
  0
SEQEND
  8
1
  0
ENDBLK
  8
0
  0
BLOCK
  8
0
  2
TRICONSMALL
 70
0
 10
0
 20
0
  0
POLYLINE
  8
1
 70
1
 66
1
 40
0.25
 41
0.25
  0
VERTEX
  8
1
 10
-0.125
 20
0
 42
1
  0
VERTEX
  8
1
 10
0.125
 20
0
 42
1
  0
SEQEND
  8
1
  0
ENDBLK
  8
0
  0
BLOCK
  8
0
  2
TRICONCIRCLE
 70
0
 10
0
 20
0
  0
CIRCLE
  8
1
 10
0
 20
0
 40
0.5
  0
ENDBLK
  8
0
  0
BLOCK
  8
0
  2
LCBP0
 70
0
 10
0
 20
0
  0
LINE
  8
1
 10
0
 20
-0.46875
 11
0
 21
0.46875
  0
ENDBLK
  8
0
  0
BLOCK
  8
0
  2
LCBP1
 70
0
 10
0
 20
0
  0
LINE
  8
1
 10
0
 20
-0.625
 11
0
 21
0.625
  0
ENDBLK
  8
0
  0
BLOCK
  8
0
  2
LCBP2
 70
0
 10
0
 20
0
  0
LINE
  8
1
 10
0
 20
-0.9375
 11
0
 21
0.9375
  0
ENDBLK
  8
0
  0
BLOCK
  8
0
  2
LCA1
 70
0
 10
0
 20
0
  0
SOLID
  8
1
 62
7 
 10
0
 20
0
 11
-1.4
 21
-0.275
 12
-1.4
 22
0.275
 13
-1.4
 23
0.275
  0
ENDBLK
  8
0
  0
BLOCK
  8
0
  2
LCA2
 70
0
 10
0
 20
0
  0
SOLID
  8
1
 62
7 
 10
0
 20
0
 11
-1.65
 21
-0.525
 12
-1.65
 22
0.525
 13
-1.65
 23
0.525
  0
ENDBLK
  8
0
  0
BLOCK
  8
0
  2
LCA3
 70
0
 10
0
 20
0
  0
SOLID
  8
1
 62
7 
 10
0
 20
0
 11
-2.15
 21
-1.15
 12
-2.15
 22
1.15
 13
-2.15
 23
1.15
  0
ENDBLK
  8
0
  0
BLOCK
  8
0
  2
LCA1R
 70
0
 10
0
 20
0
  0
SOLID
  8
1
 62
7 
 10
0
 20
0
 11
1.4
 21
-0.275
 12
1.4
 22
0.275
 13
1.4
 23
0.275
  0
ENDBLK
  8
0
  0
BLOCK
  8
0
  2
LCA2R
 70
0
 10
0
 20
0
  0
SOLID
  8
1
 62
7 
 10
0
 20
0
 11
1.65
 21
-0.525
 12
1.65
 22
0.525
 13
1.65
 23
0.525
  0
ENDBLK
  8
0
  0
BLOCK
  8
0
  2
LCA3R
 70
0
 10
0
 20
0
  0
SOLID
  8
1
 62
7 
 10
0
 20
0
 11
2.15
 21
-1.15
 12
2.15
 22
1.15
 13
2.15
 23
1.15
  0
ENDBLK
  8
0
  0
BLOCK
  8
0
  2
B2973_00995647
 70
0
 10
0
 20
0
  0
POLYLINE
  8
1
 66
1
  0
VERTEX
  8
1
 10
-96.5955108006795
 20
23
  0
VERTEX
  8
1
 10
95.4044891993205
 20
23
  0
VERTEX
  8
1
 10
95.4044891993205
 20
-23
  0
VERTEX
  8
1
 10
-96.5955108006795
 20
-23
  0
VERTEX
  8
1
 10
-96.5955108006795
 20
23
  0
SEQEND
  8
1
  0
TEXT
  8
1
 40
6
 41
0.75
  1
44
  7
STANDARD
 10
79.1392628351847
 20
-15.4505200386047
  0
TEXT
  8
1
 40
6.075
 41
0.75
  1
31
  7
STANDARD
 72
2
 10
-79.4655981063843
 20
-15.4130200386047
 11
-79.4655981063843
 21
-15.4130200386047
  0
TEXT
  8
1
 40
6.075
 41
0.75
  1
30
  7
STANDARD
 10
81.1392628351847
 20
-4.41302003860473
  0
TEXT
  8
1
 40
6.075
 41
0.75
  1
16
  7
STANDARD
 72
2
 10
-82.4655981063843
 20
-4.41302003860473
 11
-82.4655981063843
 21
-4.41302003860473
  0
TEXT
  8
1
 40
6.075
 41
0.75
  1
15
  7
STANDARD
 10
83.1392628351847
 20
7.58697996139526
  0
TEXT
  8
1
 40
6
 41
0.75
  1
1
  7
STANDARD
 72
2
 10
-85.4655981063843
 20
7.54947996139526
 11
-85.4655981063843
 21
7.54947996139526
  0
LINE
  8
1
 10
74.4044891993205
 20
6
 11
74.4044891993205
 21
12
  0
LINE
  8
1
 10
71.4044891993205
 20
9
 11
77.4044891993205
 21
9
  0
LINE
  8
1
 10
64.4044891993205
 20
6
 11
64.4044891993205
 21
12
  0
LINE
  8
1
 10
61.4044891993205
 20
9
 11
67.4044891993205
 21
9
  0
LINE
  8
1
 10
11.4044891993205
 20
9
 11
17.4044891993205
 21
9
  0
LINE
  8
1
 10
24.4044891993205
 20
6
 11
24.4044891993205
 21
12
  0
LINE
  8
1
 10
21.4044891993205
 20
9
 11
27.4044891993205
 21
9
  0
LINE
  8
1
 10
14.4044891993205
 20
6
 11
14.4044891993205
 21
12
  0
LINE
  8
1
 10
54.4044891993205
 20
6
 11
54.4044891993205
 21
12
  0
LINE
  8
1
 10
51.4044891993205
 20
9
 11
57.4044891993205
 21
9
  0
LINE
  8
1
 10
44.4044891993205
 20
6
 11
44.4044891993205
 21
12
  0
LINE
  8
1
 10
41.4044891993205
 20
9
 11
47.4044891993205
 21
9
  0
LINE
  8
1
 10
34.4044891993205
 20
6
 11
34.4044891993205
 21
12
  0
LINE
  8
1
 10
31.4044891993205
 20
9
 11
37.4044891993205
 21
9
  0
LINE
  8
1
 10
4.40448919932047
 20
6
 11
4.40448919932047
 21
12
  0
LINE
  8
1
 10
1.40448919932048
 20
9
 11
7.40448919932047
 21
9
  0
LINE
  8
1
 10
-5.59551080067952
 20
6
 11
-5.59551080067952
 21
12
  0
LINE
  8
1
 10
-8.59551080067952
 20
9
 11
-2.59551080067952
 21
9
  0
LINE
  8
1
 10
-15.5955108006795
 20
6
 11
-15.5955108006795
 21
12
  0
LINE
  8
1
 10
-18.5955108006795
 20
9
 11
-12.5955108006795
 21
9
  0
LINE
  8
1
 10
-68.5955108006795
 20
9
 11
-62.5955108006795
 21
9
  0
LINE
  8
1
 10
-55.5955108006795
 20
6
 11
-55.5955108006795
 21
12
  0
LINE
  8
1
 10
-58.5955108006795
 20
9
 11
-52.5955108006795
 21
9
  0
LINE
  8
1
 10
-65.5955108006795
 20
6
 11
-65.5955108006795
 21
12
  0
LINE
  8
1
 10
-25.5955108006795
 20
6
 11
-25.5955108006795
 21
12
  0
LINE
  8
1
 10
-28.5955108006795
 20
9
 11
-22.5955108006795
 21
9
  0
LINE
  8
1
 10
-35.5955108006795
 20
6
 11
-35.5955108006795
 21
12
  0
LINE
  8
1
 10
-38.5955108006795
 20
9
 11
-32.5955108006795
 21
9
  0
LINE
  8
1
 10
-45.5955108006795
 20
6
 11
-45.5955108006795
 21
12
  0
LINE
  8
1
 10
-48.5955108006795
 20
9
 11
-42.5955108006795
 21
9
  0
LINE
  8
1
 10
64.4044891993205
 20
-13
 11
64.4044891993205
 21
-7
  0
LINE
  8
1
 10
61.4044891993205
 20
-10
 11
67.4044891993205
 21
-10
  0
LINE
  8
1
 10
54.4044891993205
 20
-13
 11
54.4044891993205
 21
-7
  0
LINE
  8
1
 10
51.4044891993205
 20
-10
 11
57.4044891993205
 21
-10
  0
LINE
  8
1
 10
44.4044891993205
 20
-13
 11
44.4044891993205
 21
-7
  0
LINE
  8
1
 10
41.4044891993205
 20
-10
 11
47.4044891993205
 21
-10
  0
LINE
  8
1
 10
14.4044891993205
 20
-13
 11
14.4044891993205
 21
-7
  0
LINE
  8
1
 10
11.4044891993205
 20
-10
 11
17.4044891993205
 21
-10
  0
LINE
  8
1
 10
4.40448919932047
 20
-13
 11
4.40448919932047
 21
-7
  0
LINE
  8
1
 10
1.40448919932048
 20
-10
 11
7.40448919932047
 21
-10
  0
LINE
  8
1
 10
34.4044891993205
 20
-13
 11
34.4044891993205
 21
-7
  0
LINE
  8
1
 10
31.4044891993205
 20
-10
 11
37.4044891993205
 21
-10
  0
LINE
  8
1
 10
24.4044891993205
 20
-13
 11
24.4044891993205
 21
-7
  0
LINE
  8
1
 10
21.4044891993205
 20
-10
 11
27.4044891993205
 21
-10
  0
LINE
  8
1
 10
-5.59551080067952
 20
-13
 11
-5.59551080067952
 21
-7
  0
LINE
  8
1
 10
-8.59551080067952
 20
-10
 11
-2.59551080067952
 21
-10
  0
LINE
  8
1
 10
-15.5955108006795
 20
-13
 11
-15.5955108006795
 21
-7
  0
LINE
  8
1
 10
-18.5955108006795
 20
-10
 11
-12.5955108006795
 21
-10
  0
LINE
  8
1
 10
-25.5955108006795
 20
-13
 11
-25.5955108006795
 21
-7
  0
LINE
  8
1
 10
-28.5955108006795
 20
-10
 11
-22.5955108006795
 21
-10
  0
LINE
  8
1
 10
-55.5955108006795
 20
-13
 11
-55.5955108006795
 21
-7
  0
LINE
  8
1
 10
-58.5955108006795
 20
-10
 11
-52.5955108006795
 21
-10
  0
LINE
  8
1
 10
-65.5955108006795
 20
-13
 11
-65.5955108006795
 21
-7
  0
LINE
  8
1
 10
-68.5955108006795
 20
-10
 11
-62.5955108006795
 21
-10
  0
LINE
  8
1
 10
-35.5955108006795
 20
-13
 11
-35.5955108006795
 21
-7
  0
LINE
  8
1
 10
-38.5955108006795
 20
-10
 11
-32.5955108006795
 21
-10
  0
LINE
  8
1
 10
-45.5955108006795
 20
-13
 11
-45.5955108006795
 21
-7
  0
LINE
  8
1
 10
-48.5955108006795
 20
-10
 11
-42.5955108006795
 21
-10
  0
LINE
  8
1
 10
69.4044891993205
 20
-4
 11
69.4044891993205
 21
2
  0
LINE
  8
1
 10
66.4044891993205
 20
-1
 11
72.4044891993205
 21
-1
  0
LINE
  8
1
 10
59.4044891993205
 20
-4
 11
59.4044891993205
 21
2
  0
LINE
  8
1
 10
56.4044891993205
 20
-1
 11
62.4044891993205
 21
-1
  0
LINE
  8
1
 10
49.4044891993205
 20
-4
 11
49.4044891993205
 21
2
  0
LINE
  8
1
 10
46.4044891993205
 20
-1
 11
52.4044891993205
 21
-1
  0
LINE
  8
1
 10
39.4044891993205
 20
-4
 11
39.4044891993205
 21
2
  0
LINE
  8
1
 10
36.4044891993205
 20
-1
 11
42.4044891993205
 21
-1
  0
LINE
  8
1
 10
9.40448919932047
 20
-4
 11
9.40448919932047
 21
2
  0
LINE
  8
1
 10
6.40448919932047
 20
-1
 11
12.4044891993205
 21
-1
  0
LINE
  8
1
 10
-0.595510800679525
 20
-4
 11
-0.595510800679525
 21
2
  0
LINE
  8
1
 10
-3.59551080067952
 20
-1
 11
2.40448919932048
 21
-1
  0
LINE
  8
1
 10
29.4044891993205
 20
-4
 11
29.4044891993205
 21
2
  0
LINE
  8
1
 10
26.4044891993205
 20
-1
 11
32.4044891993205
 21
-1
  0
LINE
  8
1
 10
19.4044891993205
 20
-4
 11
19.4044891993205
 21
2
  0
LINE
  8
1
 10
16.4044891993205
 20
-1
 11
22.4044891993205
 21
-1
  0
LINE
  8
1
 10
-10.5955108006795
 20
-4
 11
-10.5955108006795
 21
2
  0
LINE
  8
1
 10
-13.5955108006795
 20
-1
 11
-7.59551080067952
 21
-1
  0
LINE
  8
1
 10
-20.5955108006795
 20
-4
 11
-20.5955108006795
 21
2
  0
LINE
  8
1
 10
-23.5955108006795
 20
-1
 11
-17.5955108006795
 21
-1
  0
LINE
  8
1
 10
-30.5955108006795
 20
-4
 11
-30.5955108006795
 21
2
  0
LINE
  8
1
 10
-33.5955108006795
 20
-1
 11
-27.5955108006795
 21
-1
  0
LINE
  8
1
 10
-60.5955108006795
 20
-4
 11
-60.5955108006795
 21
2
  0
LINE
  8
1
 10
-63.5955108006795
 20
-1
 11
-57.5955108006795
 21
-1
  0
LINE
  8
1
 10
-70.5955108006795
 20
-4
 11
-70.5955108006795
 21
2
  0
LINE
  8
1
 10
-73.5955108006795
 20
-1
 11
-67.5955108006795
 21
-1
  0
LINE
  8
1
 10
-40.5955108006795
 20
-4
 11
-40.5955108006795
 21
2
  0
LINE
  8
1
 10
-43.5955108006795
 20
-1
 11
-37.5955108006795
 21
-1
  0
LINE
  8
1
 10
-50.5955108006795
 20
-4
 11
-50.5955108006795
 21
2
  0
LINE
  8
1
 10
-53.5955108006795
 20
-1
 11
-47.5955108006795
 21
-1
  0
LINE
  8
1
 10
-81.5955108006795
 20
8.51565802384888
 11
-76.4336479198473
 21
-14.7521407189521
  0
POLYLINE
  8
1
 70
0
 66
1
 40
0
 41
0
  0
VERTEX
  8
1
 10
-76.4336479198473
 20
-14.7521407189521
 42
0
 70
2
 50
90
  0
VERTEX
  8
1
 10
-76.2706839267732
 20
-15.1637594268695
 42
0
 70
2
 50
90
  0
VERTEX
  8
1
 10
-76.0849614272905
 20
-15.5657339342745
 42
0
 70
2
 50
90
  0
VERTEX
  8
1
 10
-75.8770547443571
 20
-15.9568211866701
 42
0
 70
2
 50
90
  0
VERTEX
  8
1
 10
-75.647606802667
 20
-16.3358117969963
 42
0
 70
2
 50
90
  0
VERTEX
  8
1
 10
-75.3973271404882
 20
-16.7015337855036
 42
0
 70
2
 50
90
  0
VERTEX
  8
1
 10
-75.1269897155064
 20
-17.0528562039502
 42
0
 70
2
 50
90
  0
VERTEX
  8
1
 10
-74.8374305114611
 20
-17.3886926329138
 42
0
 70
2
 50
90
  0
VERTEX
  8
1
 10
-74.5295449529726
 20
-17.7080045414043
 42
0
 70
2
 50
90
  0
VERTEX
  8
1
 10
-74.2042851365568
 20
-18.0098044983868
 42
0
 70
2
 50
90
  0
VERTEX
  8
1
 10
-73.8626568863892
 20
-18.2931592262859
 42
0
 70
2
 50
90
  0
VERTEX
  8
1
 10
-73.5057166439226
 20
-18.5571924870262
 42
0
 70
2
 50
90
  0
VERTEX
  8
1
 10
-73.1345682009781
 20
-18.8010877916861
 42
0
 70
2
 50
90
  0
VERTEX
  8
1
 10
-72.7503592864103
 20
-19.0240909253847
 42
0
 70
2
 50
90
  0
VERTEX
  8
1
 10
-72.3542780169038
 20
-19.2255122795943
 42
0
 70
2
 50
90
  0
VERTEX
  8
1
 10
-71.9475492228747
 20
-19.4047289846666
 42
0
 70
2
 50
90
  0
VERTEX
  8
1
 10
-71.5314306608402
 20
-19.5611868359765
 42
0
 70
2
 50
90
  0
VERTEX
  8
1
 10
-71.1072091239681
 20
-19.6944020077289
 42
0
 70
2
 50
90
  0
VERTEX
  8
1
 10
-70.6761964628345
 20
-19.8039625491279
 42
0
 70
2
 50
90
  0
VERTEX
  8
1
 10
-70.2397255286941
 20
-19.8895296582813
 42
0
 70
2
 50
90
  0
VERTEX
  8
1
 10
-69.7991460518097
 20
-19.9508387299025
 42
0
 70
2
 50
90
  0
VERTEX
  8
1
 10
-69.3558204675842
 20
-19.9877001735675
 42
0
 70
2
 50
90
  0
VERTEX
  8
1
 10
-68.9111197034045
 20
-20
 42
0
 70
2
 50
90
  0
SEQEND
  8
1
  0
ARC
  8
1
 10
-73.9111197034045
 20
10.9549475647031
 40
8.06225774829856
 50
90
 51
197.611225192215
  0
LINE
  8
1
 10
80.6661846467383
 20
8.53736021084126
 11
75.6088331749637
 21
-14.5108692912477
  0
ARC
  8
1
 10
68.0130754509266
 20
-12
 40
8
 50
270
 51
341.708074025052
  0
ARC
  8
1
 10
73.0130754509266
 20
11
 40
8.03956933511768
 50
342.162711720608
 51
90
  0
LINE
  8
1
 10
-69.9955108006795
 20
-20
 11
68.0044891993205
 21
-20
  0
LINE
  8
1
 10
-74.9955108006795
 20
19
 11
73.0044891993205
 21
19
  0
ENDBLK
  8
0
  0
ENDSEC
  0
SECTION
  2
ENTITIES
  0
INSERT
  8
1
  2
B2973_00995647
 10
96.5955108006795
 20
23
  0
ENDSEC
  0
EOF
