  0
SECTION
  2
HEADER
  9
$LIMMIN
 10
0
 20
0
  9
$LIMMAX
 10
52.5
 20
74.25
  9
$EXTMIN
 10
0
 20
228
  9
$EXTMAX
 10
0
 20
38
  0
ENDSEC
  0
SECTION
  2
TABLES
  0
TABLE
  2
LTYPE
 70
9
  0
LTYPE
  2
CONTINUOUS
 70
64
  3
Solid line
 72
65
 73
0
 40
0
  0
LTYPE
  2
DASHED
 70
64
  3
__ __ __ __ __ __ __ __ __
 72
65
 73
2
 40
0.75
 49
0.5
 49
-0.25
  0
LTYPE
  2
DOT
 70
64
  3
...........................
 72
65
 73
2
 40
0.25
 49
0
 49
-0.25
  0
LTYPE
  2
DASHDOT
 70
64
  3
__ . __ . __ . __ . __ . __ . 
 72
65
 73
4
 40
1
 49
0.5
 49
-0.25
 49
0
 49
-0.25
  0
ENDTAB
  0
TABLE
  2
LAYER
 70
10
  0
LAYER
  2
1
 70
0
 62
7
  6
CONTINUOUS
  0
LAYER
  2
CONNECTIONS
 70
0
 62
-7
  6
CONTINUOUS
  0
ENDTAB
  0
ENDSEC
  0
SECTION
  2
BLOCKS
  0
BLOCK
  8
0
  2
TRICON
 70
0
 10
0
 20
0
  0
POLYLINE
  8
1
 70
1
 66
1
 40
0.5
 41
0.5
  0
VERTEX
  8
1
 10
-0.25
 20
0
 42
1
  0
VERTEX
  8
1
 10
0.25
 20
0
 42
1
  0
SEQEND
  8
1
  0
ENDBLK
  8
0
  0
BLOCK
  8
0
  2
TRICONSMALL
 70
0
 10
0
 20
0
  0
POLYLINE
  8
1
 70
1
 66
1
 40
0.25
 41
0.25
  0
VERTEX
  8
1
 10
-0.125
 20
0
 42
1
  0
VERTEX
  8
1
 10
0.125
 20
0
 42
1
  0
SEQEND
  8
1
  0
ENDBLK
  8
0
  0
BLOCK
  8
0
  2
TRICONCIRCLE
 70
0
 10
0
 20
0
  0
CIRCLE
  8
1
 10
0
 20
0
 40
0.5
  0
ENDBLK
  8
0
  0
BLOCK
  8
0
  2
LCBP0
 70
0
 10
0
 20
0
  0
LINE
  8
1
 10
0
 20
-0.46875
 11
0
 21
0.46875
  0
ENDBLK
  8
0
  0
BLOCK
  8
0
  2
LCBP1
 70
0
 10
0
 20
0
  0
LINE
  8
1
 10
0
 20
-0.625
 11
0
 21
0.625
  0
ENDBLK
  8
0
  0
BLOCK
  8
0
  2
LCBP2
 70
0
 10
0
 20
0
  0
LINE
  8
1
 10
0
 20
-0.9375
 11
0
 21
0.9375
  0
ENDBLK
  8
0
  0
BLOCK
  8
0
  2
LCA1
 70
0
 10
0
 20
0
  0
SOLID
  8
1
 62
7 
 10
0
 20
0
 11
-1.4
 21
-0.275
 12
-1.4
 22
0.275
 13
-1.4
 23
0.275
  0
ENDBLK
  8
0
  0
BLOCK
  8
0
  2
LCA2
 70
0
 10
0
 20
0
  0
SOLID
  8
1
 62
7 
 10
0
 20
0
 11
-1.65
 21
-0.525
 12
-1.65
 22
0.525
 13
-1.65
 23
0.525
  0
ENDBLK
  8
0
  0
BLOCK
  8
0
  2
LCA3
 70
0
 10
0
 20
0
  0
SOLID
  8
1
 62
7 
 10
0
 20
0
 11
-2.15
 21
-1.15
 12
-2.15
 22
1.15
 13
-2.15
 23
1.15
  0
ENDBLK
  8
0
  0
BLOCK
  8
0
  2
LCA1R
 70
0
 10
0
 20
0
  0
SOLID
  8
1
 62
7 
 10
0
 20
0
 11
1.4
 21
-0.275
 12
1.4
 22
0.275
 13
1.4
 23
0.275
  0
ENDBLK
  8
0
  0
BLOCK
  8
0
  2
LCA2R
 70
0
 10
0
 20
0
  0
SOLID
  8
1
 62
7 
 10
0
 20
0
 11
1.65
 21
-0.525
 12
1.65
 22
0.525
 13
1.65
 23
0.525
  0
ENDBLK
  8
0
  0
BLOCK
  8
0
  2
LCA3R
 70
0
 10
0
 20
0
  0
SOLID
  8
1
 62
7 
 10
0
 20
0
 11
2.15
 21
-1.15
 12
2.15
 22
1.15
 13
2.15
 23
1.15
  0
ENDBLK
  8
0
  0
BLOCK
  8
0
  2
B2925_00995644
 70
0
 10
0
 20
0
  0
POLYLINE
  8
1
 66
1
  0
VERTEX
  8
1
 10
-114
 20
19
  0
VERTEX
  8
1
 10
114
 20
19
  0
VERTEX
  8
1
 10
114
 20
-19
  0
VERTEX
  8
1
 10
-114
 20
-19
  0
VERTEX
  8
1
 10
-114
 20
19
  0
SEQEND
  8
1
  0
TEXT
  8
1
 40
6.075
 41
0.75
  1
20
  7
STANDARD
 10
95.7347736358643
 20
-8.41302003860473
  0
TEXT
  8
1
 40
6.075
 41
0.75
  1
37
  7
STANDARD
 72
2
 10
-95.8700873057047
 20
-8.41302003860473
 11
-95.8700873057047
 21
-8.41302003860473
  0
TEXT
  8
1
 40
6.075
 41
0.75
  1
1
  7
STANDARD
 10
98.7347736358643
 20
1.58697996139526
  0
TEXT
  8
1
 40
6
 41
0.75
  1
19
  7
STANDARD
 72
2
 10
-99.8700873057047
 20
1.54947996139526
 11
-99.8700873057047
 21
1.54947996139526
  0
CIRCLE
  8
1
 10
85
 20
-5
 40
3
  0
CIRCLE
  8
1
 10
75
 20
-5
 40
3
  0
CIRCLE
  8
1
 10
65
 20
-5
 40
3
  0
CIRCLE
  8
1
 10
55
 20
-5
 40
3
  0
CIRCLE
  8
1
 10
45
 20
-5
 40
3
  0
CIRCLE
  8
1
 10
90
 20
5
 40
3
  0
CIRCLE
  8
1
 10
80
 20
5
 40
3
  0
CIRCLE
  8
1
 10
70
 20
5
 40
3
  0
CIRCLE
  8
1
 10
60
 20
5
 40
3
  0
CIRCLE
  8
1
 10
50
 20
5
 40
3
  0
CIRCLE
  8
1
 10
35
 20
-5
 40
3
  0
CIRCLE
  8
1
 10
40
 20
5
 40
3
  0
CIRCLE
  8
1
 10
25
 20
-5
 40
3
  0
CIRCLE
  8
1
 10
15
 20
-5
 40
3
  0
CIRCLE
  8
1
 10
5
 20
-5
 40
3
  0
CIRCLE
  8
1
 10
-5
 20
-5
 40
3
  0
CIRCLE
  8
1
 10
-15
 20
-5
 40
3
  0
CIRCLE
  8
1
 10
30
 20
5
 40
3
  0
CIRCLE
  8
1
 10
20
 20
5
 40
3
  0
CIRCLE
  8
1
 10
10
 20
5
 40
3
  0
CIRCLE
  8
1
 10
0
 20
5
 40
3
  0
CIRCLE
  8
1
 10
-10
 20
5
 40
3
  0
CIRCLE
  8
1
 10
-25
 20
-5
 40
3
  0
CIRCLE
  8
1
 10
-35
 20
-5
 40
3
  0
CIRCLE
  8
1
 10
-45
 20
-5
 40
3
  0
CIRCLE
  8
1
 10
-20
 20
5
 40
3
  0
CIRCLE
  8
1
 10
-30
 20
5
 40
3
  0
CIRCLE
  8
1
 10
-40
 20
5
 40
3
  0
CIRCLE
  8
1
 10
-55
 20
-5
 40
3
  0
CIRCLE
  8
1
 10
-65
 20
-5
 40
3
  0
CIRCLE
  8
1
 10
-75
 20
-5
 40
3
  0
CIRCLE
  8
1
 10
-85
 20
-5
 40
3
  0
CIRCLE
  8
1
 10
-50
 20
5
 40
3
  0
CIRCLE
  8
1
 10
-60
 20
5
 40
3
  0
CIRCLE
  8
1
 10
-70
 20
5
 40
3
  0
CIRCLE
  8
1
 10
-80
 20
5
 40
3
  0
CIRCLE
  8
1
 10
-90
 20
5
 40
3
  0
LINE
  8
1
 10
-86
 20
-15.0667938931297
 11
86
 21
-15.0667938931297
  0
LINE
  8
1
 10
96.6404932308344
 20
4.54948088733886
 11
93.7884242807614
 21
-9.57766318437742
  0
ARC
  8
1
 10
89.0250512818414
 20
7
 40
8
 50
342.162711720608
 51
90
  0
ARC
  8
1
 10
86.1926665567243
 20
-7.06679389312975
 40
8
 50
270
 51
341.708074025052
  0
LINE
  8
1
 10
-89
 20
15
 11
89
 21
15
  0
ARC
  8
1
 10
-88.9749487181586
 20
7
 40
8
 50
90
 51
197.611225192215
  0
LINE
  8
1
 10
-96.6
 20
4.46906261178272
 11
-93.4974769346014
 21
-9.81893461208184
  0
POLYLINE
  8
1
 70
0
 66
1
 40
0
 41
0
  0
VERTEX
  8
1
 10
-93.4974769346014
 20
-9.81893461208185
 42
0
 70
2
 50
90
  0
VERTEX
  8
1
 10
-93.3345129415273
 20
-10.2305533199993
 42
0
 70
2
 50
90
  0
VERTEX
  8
1
 10
-93.1487904420446
 20
-10.6325278274042
 42
0
 70
2
 50
90
  0
VERTEX
  8
1
 10
-92.9408837591112
 20
-11.0236150797998
 42
0
 70
2
 50
90
  0
VERTEX
  8
1
 10
-92.7114358174211
 20
-11.402605690126
 42
0
 70
2
 50
90
  0
VERTEX
  8
1
 10
-92.4611561552423
 20
-11.7683276786333
 42
0
 70
2
 50
90
  0
VERTEX
  8
1
 10
-92.1908187302605
 20
-12.1196500970799
 42
0
 70
2
 50
90
  0
VERTEX
  8
1
 10
-91.9012595262152
 20
-12.4554865260436
 42
0
 70
2
 50
90
  0
VERTEX
  8
1
 10
-91.5933739677266
 20
-12.774798434534
 42
0
 70
2
 50
90
  0
VERTEX
  8
1
 10
-91.2681141513109
 20
-13.0765983915165
 42
0
 70
2
 50
90
  0
VERTEX
  8
1
 10
-90.9264859011433
 20
-13.3599531194156
 42
0
 70
2
 50
90
  0
VERTEX
  8
1
 10
-90.5695456586767
 20
-13.623986380156
 42
0
 70
2
 50
90
  0
VERTEX
  8
1
 10
-90.1983972157322
 20
-13.8678816848159
 42
0
 70
2
 50
90
  0
VERTEX
  8
1
 10
-89.8141883011644
 20
-14.0908848185144
 42
0
 70
2
 50
90
  0
VERTEX
  8
1
 10
-89.4181070316579
 20
-14.2923061727241
 42
0
 70
2
 50
90
  0
VERTEX
  8
1
 10
-89.0113782376288
 20
-14.4715228777963
 42
0
 70
2
 50
90
  0
VERTEX
  8
1
 10
-88.5952596755943
 20
-14.6279807291062
 42
0
 70
2
 50
90
  0
VERTEX
  8
1
 10
-88.1710381387222
 20
-14.7611959008587
 42
0
 70
2
 50
90
  0
VERTEX
  8
1
 10
-87.7400254775886
 20
-14.8707564422576
 42
0
 70
2
 50
90
  0
VERTEX
  8
1
 10
-87.3035545434482
 20
-14.9563235514111
 42
0
 70
2
 50
90
  0
VERTEX
  8
1
 10
-86.8629750665638
 20
-15.0176326230322
 42
0
 70
2
 50
90
  0
VERTEX
  8
1
 10
-86.4196494823383
 20
-15.0544940666973
 42
0
 70
2
 50
90
  0
VERTEX
  8
1
 10
-85.9749487181586
 20
-15.0667938931297
 42
0
 70
2
 50
90
  0
SEQEND
  8
1
  0
ENDBLK
  8
0
  0
ENDSEC
  0
SECTION
  2
ENTITIES
  0
INSERT
  8
1
  2
B2925_00995644
 10
114
 20
19
  0
ENDSEC
  0
EOF
