  0
SECTION
  2
HEADER
  9
$LIMMIN
 10
0
 20
0
  9
$LIMMAX
 10
52.5
 20
74.25
  9
$EXTMIN
 10
0
 20
164.191020965576
  9
$EXTMAX
 10
0
 20
38
  0
ENDSEC
  0
SECTION
  2
TABLES
  0
TABLE
  2
LTYPE
 70
9
  0
LTYPE
  2
CONTINUOUS
 70
64
  3
Solid line
 72
65
 73
0
 40
0
  0
LTYPE
  2
DASHED
 70
64
  3
__ __ __ __ __ __ __ __ __
 72
65
 73
2
 40
0.75
 49
0.5
 49
-0.25
  0
LTYPE
  2
DOT
 70
64
  3
...........................
 72
65
 73
2
 40
0.25
 49
0
 49
-0.25
  0
LTYPE
  2
DASHDOT
 70
64
  3
__ . __ . __ . __ . __ . __ . 
 72
65
 73
4
 40
1
 49
0.5
 49
-0.25
 49
0
 49
-0.25
  0
ENDTAB
  0
TABLE
  2
LAYER
 70
10
  0
LAYER
  2
1
 70
0
 62
7
  6
CONTINUOUS
  0
LAYER
  2
CONNECTIONS
 70
0
 62
-7
  6
CONTINUOUS
  0
ENDTAB
  0
ENDSEC
  0
SECTION
  2
BLOCKS
  0
BLOCK
  8
0
  2
TRICON
 70
0
 10
0
 20
0
  0
POLYLINE
  8
1
 70
1
 66
1
 40
0.5
 41
0.5
  0
VERTEX
  8
1
 10
-0.25
 20
0
 42
1
  0
VERTEX
  8
1
 10
0.25
 20
0
 42
1
  0
SEQEND
  8
1
  0
ENDBLK
  8
0
  0
BLOCK
  8
0
  2
TRICONSMALL
 70
0
 10
0
 20
0
  0
POLYLINE
  8
1
 70
1
 66
1
 40
0.25
 41
0.25
  0
VERTEX
  8
1
 10
-0.125
 20
0
 42
1
  0
VERTEX
  8
1
 10
0.125
 20
0
 42
1
  0
SEQEND
  8
1
  0
ENDBLK
  8
0
  0
BLOCK
  8
0
  2
TRICONCIRCLE
 70
0
 10
0
 20
0
  0
CIRCLE
  8
1
 10
0
 20
0
 40
0.5
  0
ENDBLK
  8
0
  0
BLOCK
  8
0
  2
LCBP0
 70
0
 10
0
 20
0
  0
LINE
  8
1
 10
0
 20
-0.46875
 11
0
 21
0.46875
  0
ENDBLK
  8
0
  0
BLOCK
  8
0
  2
LCBP1
 70
0
 10
0
 20
0
  0
LINE
  8
1
 10
0
 20
-0.625
 11
0
 21
0.625
  0
ENDBLK
  8
0
  0
BLOCK
  8
0
  2
LCBP2
 70
0
 10
0
 20
0
  0
LINE
  8
1
 10
0
 20
-0.9375
 11
0
 21
0.9375
  0
ENDBLK
  8
0
  0
BLOCK
  8
0
  2
LCA1
 70
0
 10
0
 20
0
  0
SOLID
  8
1
 62
7 
 10
0
 20
0
 11
-1.4
 21
-0.275
 12
-1.4
 22
0.275
 13
-1.4
 23
0.275
  0
ENDBLK
  8
0
  0
BLOCK
  8
0
  2
LCA2
 70
0
 10
0
 20
0
  0
SOLID
  8
1
 62
7 
 10
0
 20
0
 11
-1.65
 21
-0.525
 12
-1.65
 22
0.525
 13
-1.65
 23
0.525
  0
ENDBLK
  8
0
  0
BLOCK
  8
0
  2
LCA3
 70
0
 10
0
 20
0
  0
SOLID
  8
1
 62
7 
 10
0
 20
0
 11
-2.15
 21
-1.15
 12
-2.15
 22
1.15
 13
-2.15
 23
1.15
  0
ENDBLK
  8
0
  0
BLOCK
  8
0
  2
LCA1R
 70
0
 10
0
 20
0
  0
SOLID
  8
1
 62
7 
 10
0
 20
0
 11
1.4
 21
-0.275
 12
1.4
 22
0.275
 13
1.4
 23
0.275
  0
ENDBLK
  8
0
  0
BLOCK
  8
0
  2
LCA2R
 70
0
 10
0
 20
0
  0
SOLID
  8
1
 62
7 
 10
0
 20
0
 11
1.65
 21
-0.525
 12
1.65
 22
0.525
 13
1.65
 23
0.525
  0
ENDBLK
  8
0
  0
BLOCK
  8
0
  2
LCA3R
 70
0
 10
0
 20
0
  0
SOLID
  8
1
 62
7 
 10
0
 20
0
 11
2.15
 21
-1.15
 12
2.15
 22
1.15
 13
2.15
 23
1.15
  0
ENDBLK
  8
0
  0
BLOCK
  8
0
  2
B2949_00995643
 70
0
 10
0
 20
0
  0
POLYLINE
  8
1
 66
1
  0
VERTEX
  8
1
 10
-82.0955108006795
 20
19
  0
VERTEX
  8
1
 10
81.9044891993205
 20
19
  0
VERTEX
  8
1
 10
81.9044891993205
 20
-19
  0
VERTEX
  8
1
 10
-82.0955108006795
 20
-19
  0
VERTEX
  8
1
 10
-82.0955108006795
 20
19
  0
SEQEND
  8
1
  0
TEXT
  8
1
 40
6.075
 41
0.75
  1
25
  7
STANDARD
 10
66.6392628351847
 20
-9.91302003860473
  0
TEXT
  8
1
 40
6.075
 41
0.75
  1
14
  7
STANDARD
 72
2
 10
-65.9655981063843
 20
-9.91302003860473
 11
-65.9655981063843
 21
-9.91302003860473
  0
TEXT
  8
1
 40
6.075
 41
0.75
  1
13
  7
STANDARD
 10
68.6392628351847
 20
2.58697996139526
  0
TEXT
  8
1
 40
6
 41
0.75
  1
1
  7
STANDARD
 72
2
 10
-68.9655981063843
 20
2.54947996139526
 11
-68.9655981063843
 21
2.54947996139526
  0
LINE
  8
1
 10
24.9044891993205
 20
-8
 11
24.9044891993205
 21
-2
  0
LINE
  8
1
 10
21.9044891993205
 20
-5
 11
27.9044891993205
 21
-5
  0
LINE
  8
1
 10
14.9044891993205
 20
-8
 11
14.9044891993205
 21
-2
  0
LINE
  8
1
 10
11.9044891993205
 20
-5
 11
17.9044891993205
 21
-5
  0
LINE
  8
1
 10
29.9044891993205
 20
2
 11
29.9044891993205
 21
8
  0
LINE
  8
1
 10
26.9044891993205
 20
5
 11
32.9044891993205
 21
5
  0
LINE
  8
1
 10
19.9044891993205
 20
2
 11
19.9044891993205
 21
8
  0
LINE
  8
1
 10
16.9044891993205
 20
5
 11
22.9044891993205
 21
5
  0
LINE
  8
1
 10
9.90448919932047
 20
2
 11
9.90448919932047
 21
8
  0
LINE
  8
1
 10
6.90448919932047
 20
5
 11
12.9044891993205
 21
5
  0
LINE
  8
1
 10
59.9044891993205
 20
2
 11
59.9044891993205
 21
8
  0
LINE
  8
1
 10
56.9044891993205
 20
5
 11
62.9044891993205
 21
5
  0
LINE
  8
1
 10
49.9044891993205
 20
2
 11
49.9044891993205
 21
8
  0
LINE
  8
1
 10
46.9044891993205
 20
5
 11
52.9044891993205
 21
5
  0
LINE
  8
1
 10
39.9044891993205
 20
2
 11
39.9044891993205
 21
8
  0
LINE
  8
1
 10
36.9044891993205
 20
5
 11
42.9044891993205
 21
5
  0
LINE
  8
1
 10
54.9044891993205
 20
-8
 11
54.9044891993205
 21
-2
  0
LINE
  8
1
 10
51.9044891993205
 20
-5
 11
57.9044891993205
 21
-5
  0
LINE
  8
1
 10
44.9044891993205
 20
-8
 11
44.9044891993205
 21
-2
  0
LINE
  8
1
 10
41.9044891993205
 20
-5
 11
47.9044891993205
 21
-5
  0
LINE
  8
1
 10
34.9044891993205
 20
-8
 11
34.9044891993205
 21
-2
  0
LINE
  8
1
 10
31.9044891993205
 20
-5
 11
37.9044891993205
 21
-5
  0
LINE
  8
1
 10
-0.0955108006795247
 20
2
 11
-0.0955108006795247
 21
8
  0
LINE
  8
1
 10
-3.09551080067952
 20
5
 11
2.90448919932048
 21
5
  0
LINE
  8
1
 10
-10.0955108006795
 20
2
 11
-10.0955108006795
 21
8
  0
LINE
  8
1
 10
-13.0955108006795
 20
5
 11
-7.09551080067952
 21
5
  0
LINE
  8
1
 10
4.90448919932047
 20
-8
 11
4.90448919932047
 21
-2
  0
LINE
  8
1
 10
1.90448919932048
 20
-5
 11
7.90448919932047
 21
-5
  0
LINE
  8
1
 10
-5.09551080067952
 20
-8
 11
-5.09551080067952
 21
-2
  0
LINE
  8
1
 10
-8.09551080067952
 20
-5
 11
-2.09551080067952
 21
-5
  0
LINE
  8
1
 10
-15.0955108006795
 20
-8
 11
-15.0955108006795
 21
-2
  0
LINE
  8
1
 10
-18.0955108006795
 20
-5
 11
-12.0955108006795
 21
-5
  0
LINE
  8
1
 10
-63.0955108006795
 20
5
 11
-57.0955108006795
 21
5
  0
LINE
  8
1
 10
-45.0955108006795
 20
-8
 11
-45.0955108006795
 21
-2
  0
LINE
  8
1
 10
-48.0955108006795
 20
-5
 11
-42.0955108006795
 21
-5
  0
LINE
  8
1
 10
-55.0955108006795
 20
-8
 11
-55.0955108006795
 21
-2
  0
LINE
  8
1
 10
-58.0955108006795
 20
-5
 11
-52.0955108006795
 21
-5
  0
LINE
  8
1
 10
-25.0955108006795
 20
-8
 11
-25.0955108006795
 21
-2
  0
LINE
  8
1
 10
-28.0955108006795
 20
-5
 11
-22.0955108006795
 21
-5
  0
LINE
  8
1
 10
-35.0955108006795
 20
-8
 11
-35.0955108006795
 21
-2
  0
LINE
  8
1
 10
-38.0955108006795
 20
-5
 11
-32.0955108006795
 21
-5
  0
LINE
  8
1
 10
-50.0955108006795
 20
2
 11
-50.0955108006795
 21
8
  0
LINE
  8
1
 10
-53.0955108006795
 20
5
 11
-47.0955108006795
 21
5
  0
LINE
  8
1
 10
-60.0955108006795
 20
2
 11
-60.0955108006795
 21
8
  0
LINE
  8
1
 10
-20.0955108006795
 20
2
 11
-20.0955108006795
 21
8
  0
LINE
  8
1
 10
-23.0955108006795
 20
5
 11
-17.0955108006795
 21
5
  0
LINE
  8
1
 10
-30.0955108006795
 20
2
 11
-30.0955108006795
 21
8
  0
LINE
  8
1
 10
-33.0955108006795
 20
5
 11
-27.0955108006795
 21
5
  0
LINE
  8
1
 10
-40.0955108006795
 20
2
 11
-40.0955108006795
 21
8
  0
LINE
  8
1
 10
-43.0955108006795
 20
5
 11
-37.0955108006795
 21
5
  0
LINE
  8
1
 10
66.5199311483134
 20
4.54948088733886
 11
63.6678621982405
 21
-9.57766318437742
  0
LINE
  8
1
 10
-56.0955108006795
 20
-15.0667938931297
 11
55.9044891993205
 21
-15.0667938931297
  0
LINE
  8
1
 10
-59.0955108006795
 20
15
 11
58.9044891993205
 21
15
  0
ARC
  8
1
 10
58.9044891993205
 20
7
 40
8
 50
342.162711720608
 51
90
  0
ARC
  8
1
 10
-59.0955108006795
 20
7
 40
8
 50
90
 51
197.611225192215
  0
LINE
  8
1
 10
-66.7205620825209
 20
4.46906261178272
 11
-63.6180390171223
 21
-9.81893461208184
  0
POLYLINE
  8
1
 70
0
 66
1
 40
0
 41
0
  0
VERTEX
  8
1
 10
-63.6180390171223
 20
-9.81893461208185
 42
0
 70
2
 50
90
  0
VERTEX
  8
1
 10
-63.4550750240482
 20
-10.2305533199993
 42
0
 70
2
 50
90
  0
VERTEX
  8
1
 10
-63.2693525245655
 20
-10.6325278274042
 42
0
 70
2
 50
90
  0
VERTEX
  8
1
 10
-63.0614458416321
 20
-11.0236150797998
 42
0
 70
2
 50
90
  0
VERTEX
  8
1
 10
-62.831997899942
 20
-11.402605690126
 42
0
 70
2
 50
90
  0
VERTEX
  8
1
 10
-62.5817182377632
 20
-11.7683276786333
 42
0
 70
2
 50
90
  0
VERTEX
  8
1
 10
-62.3113808127814
 20
-12.1196500970799
 42
0
 70
2
 50
90
  0
VERTEX
  8
1
 10
-62.0218216087361
 20
-12.4554865260436
 42
0
 70
2
 50
90
  0
VERTEX
  8
1
 10
-61.7139360502476
 20
-12.774798434534
 42
0
 70
2
 50
90
  0
VERTEX
  8
1
 10
-61.3886762338318
 20
-13.0765983915165
 42
0
 70
2
 50
90
  0
VERTEX
  8
1
 10
-61.0470479836642
 20
-13.3599531194156
 42
0
 70
2
 50
90
  0
VERTEX
  8
1
 10
-60.6901077411976
 20
-13.623986380156
 42
0
 70
2
 50
90
  0
VERTEX
  8
1
 10
-60.3189592982531
 20
-13.8678816848159
 42
0
 70
2
 50
90
  0
VERTEX
  8
1
 10
-59.9347503836853
 20
-14.0908848185144
 42
0
 70
2
 50
90
  0
VERTEX
  8
1
 10
-59.5386691141788
 20
-14.2923061727241
 42
0
 70
2
 50
90
  0
VERTEX
  8
1
 10
-59.1319403201497
 20
-14.4715228777963
 42
0
 70
2
 50
90
  0
VERTEX
  8
1
 10
-58.7158217581152
 20
-14.6279807291062
 42
0
 70
2
 50
90
  0
VERTEX
  8
1
 10
-58.2916002212431
 20
-14.7611959008587
 42
0
 70
2
 50
90
  0
VERTEX
  8
1
 10
-57.8605875601095
 20
-14.8707564422576
 42
0
 70
2
 50
90
  0
VERTEX
  8
1
 10
-57.4241166259691
 20
-14.9563235514111
 42
0
 70
2
 50
90
  0
VERTEX
  8
1
 10
-56.9835371490847
 20
-15.0176326230322
 42
0
 70
2
 50
90
  0
VERTEX
  8
1
 10
-56.5402115648592
 20
-15.0544940666973
 42
0
 70
2
 50
90
  0
VERTEX
  8
1
 10
-56.0955108006795
 20
-15.0667938931297
 42
0
 70
2
 50
90
  0
SEQEND
  8
1
  0
ARC
  8
1
 10
56.0721044742034
 20
-7.06679389312975
 40
8
 50
270
 51
341.708074025052
  0
ENDBLK
  8
0
  0
ENDSEC
  0
SECTION
  2
ENTITIES
  0
INSERT
  8
1
  2
B2949_00995643
 10
82.0955108006795
 20
19
  0
ENDSEC
  0
EOF
