  0
SECTION
  2
HEADER
  9
$LIMMIN
 10
0
 20
0
  9
$LIMMAX
 10
52.5
 20
74.25
  9
$EXTMIN
 10
0
 20
164
  9
$EXTMAX
 10
0
 20
38
  0
ENDSEC
  0
SECTION
  2
TABLES
  0
TABLE
  2
LTYPE
 70
9
  0
LTYPE
  2
CONTINUOUS
 70
64
  3
Solid line
 72
65
 73
0
 40
0
  0
LTYPE
  2
DASHED
 70
64
  3
__ __ __ __ __ __ __ __ __
 72
65
 73
2
 40
0.75
 49
0.5
 49
-0.25
  0
LTYPE
  2
DOT
 70
64
  3
...........................
 72
65
 73
2
 40
0.25
 49
0
 49
-0.25
  0
LTYPE
  2
DASHDOT
 70
64
  3
__ . __ . __ . __ . __ . __ . 
 72
65
 73
4
 40
1
 49
0.5
 49
-0.25
 49
0
 49
-0.25
  0
ENDTAB
  0
TABLE
  2
LAYER
 70
10
  0
LAYER
  2
1
 70
0
 62
7
  6
CONTINUOUS
  0
LAYER
  2
CONNECTIONS
 70
0
 62
-7
  6
CONTINUOUS
  0
ENDTAB
  0
ENDSEC
  0
SECTION
  2
BLOCKS
  0
BLOCK
  8
0
  2
TRICON
 70
0
 10
0
 20
0
  0
POLYLINE
  8
1
 70
1
 66
1
 40
0.5
 41
0.5
  0
VERTEX
  8
1
 10
-0.25
 20
0
 42
1
  0
VERTEX
  8
1
 10
0.25
 20
0
 42
1
  0
SEQEND
  8
1
  0
ENDBLK
  8
0
  0
BLOCK
  8
0
  2
TRICONSMALL
 70
0
 10
0
 20
0
  0
POLYLINE
  8
1
 70
1
 66
1
 40
0.25
 41
0.25
  0
VERTEX
  8
1
 10
-0.125
 20
0
 42
1
  0
VERTEX
  8
1
 10
0.125
 20
0
 42
1
  0
SEQEND
  8
1
  0
ENDBLK
  8
0
  0
BLOCK
  8
0
  2
TRICONCIRCLE
 70
0
 10
0
 20
0
  0
CIRCLE
  8
1
 10
0
 20
0
 40
0.5
  0
ENDBLK
  8
0
  0
BLOCK
  8
0
  2
LCBP0
 70
0
 10
0
 20
0
  0
LINE
  8
1
 10
0
 20
-0.46875
 11
0
 21
0.46875
  0
ENDBLK
  8
0
  0
BLOCK
  8
0
  2
LCBP1
 70
0
 10
0
 20
0
  0
LINE
  8
1
 10
0
 20
-0.625
 11
0
 21
0.625
  0
ENDBLK
  8
0
  0
BLOCK
  8
0
  2
LCBP2
 70
0
 10
0
 20
0
  0
LINE
  8
1
 10
0
 20
-0.9375
 11
0
 21
0.9375
  0
ENDBLK
  8
0
  0
BLOCK
  8
0
  2
LCA1
 70
0
 10
0
 20
0
  0
SOLID
  8
1
 62
7 
 10
0
 20
0
 11
-1.4
 21
-0.275
 12
-1.4
 22
0.275
 13
-1.4
 23
0.275
  0
ENDBLK
  8
0
  0
BLOCK
  8
0
  2
LCA2
 70
0
 10
0
 20
0
  0
SOLID
  8
1
 62
7 
 10
0
 20
0
 11
-1.65
 21
-0.525
 12
-1.65
 22
0.525
 13
-1.65
 23
0.525
  0
ENDBLK
  8
0
  0
BLOCK
  8
0
  2
LCA3
 70
0
 10
0
 20
0
  0
SOLID
  8
1
 62
7 
 10
0
 20
0
 11
-2.15
 21
-1.15
 12
-2.15
 22
1.15
 13
-2.15
 23
1.15
  0
ENDBLK
  8
0
  0
BLOCK
  8
0
  2
LCA1R
 70
0
 10
0
 20
0
  0
SOLID
  8
1
 62
7 
 10
0
 20
0
 11
1.4
 21
-0.275
 12
1.4
 22
0.275
 13
1.4
 23
0.275
  0
ENDBLK
  8
0
  0
BLOCK
  8
0
  2
LCA2R
 70
0
 10
0
 20
0
  0
SOLID
  8
1
 62
7 
 10
0
 20
0
 11
1.65
 21
-0.525
 12
1.65
 22
0.525
 13
1.65
 23
0.525
  0
ENDBLK
  8
0
  0
BLOCK
  8
0
  2
LCA3R
 70
0
 10
0
 20
0
  0
SOLID
  8
1
 62
7 
 10
0
 20
0
 11
2.15
 21
-1.15
 12
2.15
 22
1.15
 13
2.15
 23
1.15
  0
ENDBLK
  8
0
  0
BLOCK
  8
0
  2
B2941_00995642
 70
0
 10
0
 20
0
  0
POLYLINE
  8
1
 66
1
  0
VERTEX
  8
1
 10
-82
 20
19
  0
VERTEX
  8
1
 10
82
 20
19
  0
VERTEX
  8
1
 10
82
 20
-19
  0
VERTEX
  8
1
 10
-82
 20
-19
  0
VERTEX
  8
1
 10
-82
 20
19
  0
SEQEND
  8
1
  0
TEXT
  8
1
 40
6.075
 41
0.75
  1
14
  7
STANDARD
 10
65.7347736358643
 20
-9.41302003860473
  0
TEXT
  8
1
 40
6.075
 41
0.75
  1
25
  7
STANDARD
 72
2
 10
-64.8700873057047
 20
-9.41302003860473
 11
-64.8700873057047
 21
-9.41302003860473
  0
TEXT
  8
1
 40
6.075
 41
0.75
  1
1
  7
STANDARD
 10
67.7347736358643
 20
1.58697996139526
  0
TEXT
  8
1
 40
6
 41
0.75
  1
13
  7
STANDARD
 72
2
 10
-66.8700873057047
 20
1.54947996139526
 11
-66.8700873057047
 21
1.54947996139526
  0
CIRCLE
  8
1
 10
55
 20
-5
 40
3
  0
CIRCLE
  8
1
 10
45
 20
-5
 40
3
  0
CIRCLE
  8
1
 10
35
 20
-5
 40
3
  0
CIRCLE
  8
1
 10
25
 20
-5
 40
3
  0
CIRCLE
  8
1
 10
15
 20
-5
 40
3
  0
CIRCLE
  8
1
 10
60
 20
5
 40
3
  0
CIRCLE
  8
1
 10
50
 20
5
 40
3
  0
CIRCLE
  8
1
 10
40
 20
5
 40
3
  0
CIRCLE
  8
1
 10
30
 20
5
 40
3
  0
CIRCLE
  8
1
 10
20
 20
5
 40
3
  0
CIRCLE
  8
1
 10
5
 20
-5
 40
3
  0
CIRCLE
  8
1
 10
-5
 20
-5
 40
3
  0
CIRCLE
  8
1
 10
-15
 20
-5
 40
3
  0
CIRCLE
  8
1
 10
10
 20
5
 40
3
  0
CIRCLE
  8
1
 10
0
 20
5
 40
3
  0
CIRCLE
  8
1
 10
-10
 20
5
 40
3
  0
CIRCLE
  8
1
 10
-25
 20
-5
 40
3
  0
CIRCLE
  8
1
 10
-35
 20
-5
 40
3
  0
CIRCLE
  8
1
 10
-45
 20
-5
 40
3
  0
CIRCLE
  8
1
 10
-55
 20
-5
 40
3
  0
CIRCLE
  8
1
 10
-20
 20
5
 40
3
  0
CIRCLE
  8
1
 10
-30
 20
5
 40
3
  0
CIRCLE
  8
1
 10
-40
 20
5
 40
3
  0
CIRCLE
  8
1
 10
-50
 20
5
 40
3
  0
CIRCLE
  8
1
 10
-60
 20
5
 40
3
  0
LINE
  8
1
 10
66.615441948993
 20
4.54948088733886
 11
63.76337299892
 21
-9.57766318437742
  0
LINE
  8
1
 10
-56
 20
-15.0667938931297
 11
56
 21
-15.0667938931297
  0
LINE
  8
1
 10
-59
 20
15
 11
59
 21
15
  0
ARC
  8
1
 10
59
 20
7
 40
8
 50
342.162711720608
 51
90
  0
ARC
  8
1
 10
-59
 20
7
 40
8
 50
90
 51
197.611225192215
  0
LINE
  8
1
 10
-66.6250512818414
 20
4.46906261178272
 11
-63.5225282164428
 21
-9.81893461208184
  0
POLYLINE
  8
1
 70
0
 66
1
 40
0
 41
0
  0
VERTEX
  8
1
 10
-63.5225282164428
 20
-9.81893461208185
 42
0
 70
2
 50
90
  0
VERTEX
  8
1
 10
-63.3595642233687
 20
-10.2305533199993
 42
0
 70
2
 50
90
  0
VERTEX
  8
1
 10
-63.173841723886
 20
-10.6325278274042
 42
0
 70
2
 50
90
  0
VERTEX
  8
1
 10
-62.9659350409526
 20
-11.0236150797998
 42
0
 70
2
 50
90
  0
VERTEX
  8
1
 10
-62.7364870992625
 20
-11.402605690126
 42
0
 70
2
 50
90
  0
VERTEX
  8
1
 10
-62.4862074370837
 20
-11.7683276786333
 42
0
 70
2
 50
90
  0
VERTEX
  8
1
 10
-62.2158700121019
 20
-12.1196500970799
 42
0
 70
2
 50
90
  0
VERTEX
  8
1
 10
-61.9263108080566
 20
-12.4554865260436
 42
0
 70
2
 50
90
  0
VERTEX
  8
1
 10
-61.618425249568
 20
-12.774798434534
 42
0
 70
2
 50
90
  0
VERTEX
  8
1
 10
-61.2931654331523
 20
-13.0765983915165
 42
0
 70
2
 50
90
  0
VERTEX
  8
1
 10
-60.9515371829847
 20
-13.3599531194156
 42
0
 70
2
 50
90
  0
VERTEX
  8
1
 10
-60.5945969405181
 20
-13.623986380156
 42
0
 70
2
 50
90
  0
VERTEX
  8
1
 10
-60.2234484975736
 20
-13.8678816848159
 42
0
 70
2
 50
90
  0
VERTEX
  8
1
 10
-59.8392395830058
 20
-14.0908848185144
 42
0
 70
2
 50
90
  0
VERTEX
  8
1
 10
-59.4431583134993
 20
-14.2923061727241
 42
0
 70
2
 50
90
  0
VERTEX
  8
1
 10
-59.0364295194702
 20
-14.4715228777963
 42
0
 70
2
 50
90
  0
VERTEX
  8
1
 10
-58.6203109574357
 20
-14.6279807291062
 42
0
 70
2
 50
90
  0
VERTEX
  8
1
 10
-58.1960894205636
 20
-14.7611959008587
 42
0
 70
2
 50
90
  0
VERTEX
  8
1
 10
-57.76507675943
 20
-14.8707564422576
 42
0
 70
2
 50
90
  0
VERTEX
  8
1
 10
-57.3286058252896
 20
-14.9563235514111
 42
0
 70
2
 50
90
  0
VERTEX
  8
1
 10
-56.8880263484052
 20
-15.0176326230322
 42
0
 70
2
 50
90
  0
VERTEX
  8
1
 10
-56.4447007641797
 20
-15.0544940666973
 42
0
 70
2
 50
90
  0
VERTEX
  8
1
 10
-56
 20
-15.0667938931297
 42
0
 70
2
 50
90
  0
SEQEND
  8
1
  0
ARC
  8
1
 10
56.1676152748829
 20
-7.06679389312975
 40
8
 50
270
 51
341.708074025052
  0
ENDBLK
  8
0
  0
ENDSEC
  0
SECTION
  2
ENTITIES
  0
INSERT
  8
1
  2
B2941_00995642
 10
82
 20
19
  0
ENDSEC
  0
EOF
