  0
SECTION
  2
HEADER
  9
$LIMMIN
 10
0
 20
0
  9
$LIMMAX
 10
52.5
 20
74.25
  9
$EXTMIN
 10
0
 20
116
  9
$EXTMAX
 10
0
 20
32
  0
ENDSEC
  0
SECTION
  2
TABLES
  0
TABLE
  2
LTYPE
 70
9
  0
LTYPE
  2
CONTINUOUS
 70
64
  3
Solid line
 72
65
 73
0
 40
0
  0
LTYPE
  2
DASHED
 70
64
  3
__ __ __ __ __ __ __ __ __
 72
65
 73
2
 40
0.75
 49
0.5
 49
-0.25
  0
LTYPE
  2
DOT
 70
64
  3
...........................
 72
65
 73
2
 40
0.25
 49
0
 49
-0.25
  0
LTYPE
  2
DASHDOT
 70
64
  3
__ . __ . __ . __ . __ . __ . 
 72
65
 73
4
 40
1
 49
0.5
 49
-0.25
 49
0
 49
-0.25
  0
ENDTAB
  0
TABLE
  2
LAYER
 70
10
  0
LAYER
  2
1
 70
0
 62
7
  6
CONTINUOUS
  0
LAYER
  2
CONNECTIONS
 70
0
 62
-7
  6
CONTINUOUS
  0
ENDTAB
  0
ENDSEC
  0
SECTION
  2
BLOCKS
  0
BLOCK
  8
0
  2
TRICON
 70
0
 10
0
 20
0
  0
POLYLINE
  8
1
 70
1
 66
1
 40
0.5
 41
0.5
  0
VERTEX
  8
1
 10
-0.25
 20
0
 42
1
  0
VERTEX
  8
1
 10
0.25
 20
0
 42
1
  0
SEQEND
  8
1
  0
ENDBLK
  8
0
  0
BLOCK
  8
0
  2
TRICONSMALL
 70
0
 10
0
 20
0
  0
POLYLINE
  8
1
 70
1
 66
1
 40
0.25
 41
0.25
  0
VERTEX
  8
1
 10
-0.125
 20
0
 42
1
  0
VERTEX
  8
1
 10
0.125
 20
0
 42
1
  0
SEQEND
  8
1
  0
ENDBLK
  8
0
  0
BLOCK
  8
0
  2
TRICONCIRCLE
 70
0
 10
0
 20
0
  0
CIRCLE
  8
1
 10
0
 20
0
 40
0.5
  0
ENDBLK
  8
0
  0
BLOCK
  8
0
  2
LCBP0
 70
0
 10
0
 20
0
  0
LINE
  8
1
 10
0
 20
-0.46875
 11
0
 21
0.46875
  0
ENDBLK
  8
0
  0
BLOCK
  8
0
  2
LCBP1
 70
0
 10
0
 20
0
  0
LINE
  8
1
 10
0
 20
-0.625
 11
0
 21
0.625
  0
ENDBLK
  8
0
  0
BLOCK
  8
0
  2
LCBP2
 70
0
 10
0
 20
0
  0
LINE
  8
1
 10
0
 20
-0.9375
 11
0
 21
0.9375
  0
ENDBLK
  8
0
  0
BLOCK
  8
0
  2
LCA1
 70
0
 10
0
 20
0
  0
SOLID
  8
1
 62
7 
 10
0
 20
0
 11
-1.4
 21
-0.275
 12
-1.4
 22
0.275
 13
-1.4
 23
0.275
  0
ENDBLK
  8
0
  0
BLOCK
  8
0
  2
LCA2
 70
0
 10
0
 20
0
  0
SOLID
  8
1
 62
7 
 10
0
 20
0
 11
-1.65
 21
-0.525
 12
-1.65
 22
0.525
 13
-1.65
 23
0.525
  0
ENDBLK
  8
0
  0
BLOCK
  8
0
  2
LCA3
 70
0
 10
0
 20
0
  0
SOLID
  8
1
 62
7 
 10
0
 20
0
 11
-2.15
 21
-1.15
 12
-2.15
 22
1.15
 13
-2.15
 23
1.15
  0
ENDBLK
  8
0
  0
BLOCK
  8
0
  2
LCA1R
 70
0
 10
0
 20
0
  0
SOLID
  8
1
 62
7 
 10
0
 20
0
 11
1.4
 21
-0.275
 12
1.4
 22
0.275
 13
1.4
 23
0.275
  0
ENDBLK
  8
0
  0
BLOCK
  8
0
  2
LCA2R
 70
0
 10
0
 20
0
  0
SOLID
  8
1
 62
7 
 10
0
 20
0
 11
1.65
 21
-0.525
 12
1.65
 22
0.525
 13
1.65
 23
0.525
  0
ENDBLK
  8
0
  0
BLOCK
  8
0
  2
LCA3R
 70
0
 10
0
 20
0
  0
SOLID
  8
1
 62
7 
 10
0
 20
0
 11
2.15
 21
-1.15
 12
2.15
 22
1.15
 13
2.15
 23
1.15
  0
ENDBLK
  8
0
  0
BLOCK
  8
0
  2
B2893_00995641
 70
0
 10
0
 20
0
  0
POLYLINE
  8
1
 66
1
  0
VERTEX
  8
1
 10
-58
 20
16
  0
VERTEX
  8
1
 10
58
 20
16
  0
VERTEX
  8
1
 10
58
 20
-16
  0
VERTEX
  8
1
 10
-58
 20
-16
  0
VERTEX
  8
1
 10
-58
 20
16
  0
SEQEND
  8
1
  0
TEXT
  8
1
 40
6.075
 41
0.75
  1
15
  7
STANDARD
 10
39.7347736358643
 20
-9.41302003860473
  0
TEXT
  8
1
 40
6.075
 41
0.75
  1
9
  7
STANDARD
 72
2
 10
-40.8700873057048
 20
-9.41302003860473
 11
-40.8700873057048
 21
-9.41302003860473
  0
TEXT
  8
1
 40
6.075
 41
0.75
  1
8
  7
STANDARD
 10
44.7347736358643
 20
1.58697996139526
  0
TEXT
  8
1
 40
6
 41
0.75
  1
1
  7
STANDARD
 72
2
 10
-42.8700873057048
 20
1.54947996139526
 11
-42.8700873057048
 21
1.54947996139526
  0
LINE
  8
1
 10
35
 20
2
 11
35
 21
8
  0
LINE
  8
1
 10
32
 20
5
 11
38
 21
5
  0
LINE
  8
1
 10
25
 20
2
 11
25
 21
8
  0
LINE
  8
1
 10
22
 20
5
 11
28
 21
5
  0
LINE
  8
1
 10
15
 20
2
 11
15
 21
8
  0
LINE
  8
1
 10
12
 20
5
 11
18
 21
5
  0
LINE
  8
1
 10
30
 20
-8
 11
30
 21
-2
  0
LINE
  8
1
 10
27
 20
-5
 11
33
 21
-5
  0
LINE
  8
1
 10
20
 20
-8
 11
20
 21
-2
  0
LINE
  8
1
 10
17
 20
-5
 11
23
 21
-5
  0
LINE
  8
1
 10
10
 20
-8
 11
10
 21
-2
  0
LINE
  8
1
 10
7
 20
-5
 11
13
 21
-5
  0
LINE
  8
1
 10
-38
 20
5
 11
-32
 21
5
  0
LINE
  8
1
 10
-20
 20
-8
 11
-20
 21
-2
  0
LINE
  8
1
 10
-23
 20
-5
 11
-17
 21
-5
  0
LINE
  8
1
 10
-30
 20
-8
 11
-30
 21
-2
  0
LINE
  8
1
 10
-33
 20
-5
 11
-27
 21
-5
  0
LINE
  8
1
 10
0
 20
-8
 11
0
 21
-2
  0
LINE
  8
1
 10
-3
 20
-5
 11
3
 21
-5
  0
LINE
  8
1
 10
-10
 20
-8
 11
-10
 21
-2
  0
LINE
  8
1
 10
-13
 20
-5
 11
-7
 21
-5
  0
LINE
  8
1
 10
-25
 20
2
 11
-25
 21
8
  0
LINE
  8
1
 10
-28
 20
5
 11
-22
 21
5
  0
LINE
  8
1
 10
-35
 20
2
 11
-35
 21
8
  0
LINE
  8
1
 10
5
 20
2
 11
5
 21
8
  0
LINE
  8
1
 10
2
 20
5
 11
8
 21
5
  0
LINE
  8
1
 10
-5
 20
2
 11
-5
 21
8
  0
LINE
  8
1
 10
-8
 20
5
 11
-2
 21
5
  0
LINE
  8
1
 10
-15
 20
2
 11
-15
 21
8
  0
LINE
  8
1
 10
-18
 20
5
 11
-12
 21
5
  0
LINE
  8
1
 10
-34.1
 20
15
 11
34.1
 21
15
  0
ARC
  8
1
 10
31.1454819259064
 20
-7.06679389312974
 40
8
 50
269.5
 51
341.708074025052
  0
LINE
  8
1
 10
-31
 20
-15.0667938931297
 11
31
 21
-15.0667938931297
  0
POLYLINE
  8
1
 70
0
 66
1
 40
0
 41
0
  0
VERTEX
  8
1
 10
-33.7787132284247
 20
15
 42
0
 70
2
 50
90
  0
VERTEX
  8
1
 10
-34.2234306766761
 20
14.9876497590115
 42
0
 70
2
 50
90
  0
VERTEX
  8
1
 10
-34.6667939652366
 20
14.9506366423928
 42
0
 70
2
 50
90
  0
VERTEX
  8
1
 10
-35.107453057817
 20
14.8890733546727
 42
0
 70
2
 50
90
  0
VERTEX
  8
1
 10
-35.5440661523743
 20
14.8031473553788
 42
0
 70
2
 50
90
  0
VERTEX
  8
1
 10
-35.9753037668848
 20
14.6931202882245
 42
0
 70
2
 50
90
  0
VERTEX
  8
1
 10
-36.3998527876018
 20
14.5593271844073
 42
0
 70
2
 50
90
  0
VERTEX
  8
1
 10
-36.8164204674725
 20
14.4021754424424
 42
0
 70
2
 50
90
  0
VERTEX
  8
1
 10
-37.2237383625382
 20
14.2221435876386
 42
0
 70
2
 50
90
  0
VERTEX
  8
1
 10
-37.6205661943322
 20
14.0197798149944
 42
0
 70
2
 50
90
  0
VERTEX
  8
1
 10
-38.0056956265141
 20
13.7957003199499
 42
0
 70
2
 50
90
  0
VERTEX
  8
1
 10
-38.3779539442401
 20
13.5505874220788
 42
0
 70
2
 50
90
  0
VERTEX
  8
1
 10
-38.7362076250674
 20
13.2851874874329
 42
0
 70
2
 50
90
  0
VERTEX
  8
1
 10
-39.0793657905166
 20
13.0003086558654
 42
0
 70
2
 50
90
  0
VERTEX
  8
1
 10
-39.4063835277852
 20
12.6968183802546
 42
0
 70
2
 50
90
  0
VERTEX
  8
1
 10
-39.7162650714952
 20
12.3756407851191
 42
0
 70
2
 50
90
  0
VERTEX
  8
1
 10
-40.0080668357877
 20
12.0377538526688
 42
0
 70
2
 50
90
  0
VERTEX
  8
1
 10
-40.2809002875313
 20
11.6841864448604
 42
0
 70
2
 50
90
  0
VERTEX
  8
1
 10
-40.5339346518955
 20
11.3160151705239
 42
0
 70
2
 50
90
  0
VERTEX
  8
1
 10
-40.7663994420512
 20
10.9343611071005
 42
0
 70
2
 50
90
  0
VERTEX
  8
1
 10
-40.9775868052943
 20
10.5403863869745
 42
0
 70
2
 50
90
  0
VERTEX
  8
1
 10
-41.166853678449
 20
10.1352906587932
 42
0
 70
2
 50
90
  0
VERTEX
  8
1
 10
-41.3336237459889
 20
9.72030743454972
 42
0
 70
2
 50
90
  0
VERTEX
  8
1
 10
-41.4773891949103
 20
9.29670033355289
 42
0
 70
2
 50
90
  0
VERTEX
  8
1
 10
-41.5977122610181
 20
8.86575923472053
 42
0
 70
2
 50
90
  0
VERTEX
  8
1
 10
-41.6942265619123
 20
8.42879634891239
 42
0
 70
2
 50
90
  0
VERTEX
  8
1
 10
-41.7666382126186
 20
7.9871422232627
 42
0
 70
2
 50
90
  0
VERTEX
  8
1
 10
-41.8147267204648
 20
7.54214168967889
 42
0
 70
2
 50
90
  0
VERTEX
  8
1
 10
-41.8383456564787
 20
7.09514976984337
 42
0
 70
2
 50
90
  0
VERTEX
  8
1
 10
-41.8374231012624
 20
6.64752754918759
 42
0
 70
2
 50
90
  0
VERTEX
  8
1
 10
-41.8119618639862
 20
6.200638032402
 42
0
 70
2
 50
90
  0
VERTEX
  8
1
 10
-41.762039473835
 20
5.75584199310188
 42
0
 70
2
 50
90
  0
VERTEX
  8
1
 10
-41.6878079439322
 20
5.31449383028684
 42
0
 70
2
 50
90
  0
VERTEX
  8
1
 10
-41.589493308462
 20
4.87793744421088
 42
0
 70
2
 50
90
  0
VERTEX
  8
1
 10
-41.4673949343975
 20
4.44750214422105
 42
0
 70
2
 50
90
  0
SEQEND
  8
1
  0
LINE
  8
1
 10
-41.4631043256998
 20
4.44886413071913
 11
-38.3012414448676
 21
-9.81893461208184
  0
POLYLINE
  8
1
 70
0
 66
1
 40
0
 41
0
  0
VERTEX
  8
1
 10
-38.3012414448675
 20
-9.81893461208186
 42
0
 70
2
 50
90
  0
VERTEX
  8
1
 10
-38.1382774517935
 20
-10.2305533199993
 42
0
 70
2
 50
90
  0
VERTEX
  8
1
 10
-37.9525549523107
 20
-10.6325278274042
 42
0
 70
2
 50
90
  0
VERTEX
  8
1
 10
-37.7446482693773
 20
-11.0236150797998
 42
0
 70
2
 50
90
  0
VERTEX
  8
1
 10
-37.5152003276872
 20
-11.402605690126
 42
0
 70
2
 50
90
  0
VERTEX
  8
1
 10
-37.2649206655084
 20
-11.7683276786333
 42
0
 70
2
 50
90
  0
VERTEX
  8
1
 10
-36.9945832405267
 20
-12.1196500970799
 42
0
 70
2
 50
90
  0
VERTEX
  8
1
 10
-36.7050240364813
 20
-12.4554865260436
 42
0
 70
2
 50
90
  0
VERTEX
  8
1
 10
-36.3971384779928
 20
-12.774798434534
 42
0
 70
2
 50
90
  0
VERTEX
  8
1
 10
-36.071878661577
 20
-13.0765983915165
 42
0
 70
2
 50
90
  0
VERTEX
  8
1
 10
-35.7302504114094
 20
-13.3599531194157
 42
0
 70
2
 50
90
  0
VERTEX
  8
1
 10
-35.3733101689428
 20
-13.623986380156
 42
0
 70
2
 50
90
  0
VERTEX
  8
1
 10
-35.0021617259983
 20
-13.8678816848159
 42
0
 70
2
 50
90
  0
VERTEX
  8
1
 10
-34.6179528114305
 20
-14.0908848185144
 42
0
 70
2
 50
90
  0
VERTEX
  8
1
 10
-34.221871541924
 20
-14.2923061727241
 42
0
 70
2
 50
90
  0
VERTEX
  8
1
 10
-33.8151427478949
 20
-14.4715228777964
 42
0
 70
2
 50
90
  0
VERTEX
  8
1
 10
-33.3990241858604
 20
-14.6279807291063
 42
0
 70
2
 50
90
  0
VERTEX
  8
1
 10
-32.9748026489884
 20
-14.7611959008587
 42
0
 70
2
 50
90
  0
VERTEX
  8
1
 10
-32.5437899878547
 20
-14.8707564422576
 42
0
 70
2
 50
90
  0
VERTEX
  8
1
 10
-32.1073190537144
 20
-14.9563235514111
 42
0
 70
2
 50
90
  0
VERTEX
  8
1
 10
-31.66673957683
 20
-15.0176326230322
 42
0
 70
2
 50
90
  0
VERTEX
  8
1
 10
-31.2234139926044
 20
-15.0544940666973
 42
0
 70
2
 50
90
  0
VERTEX
  8
1
 10
-30.7787132284247
 20
-15.0667938931297
 42
0
 70
2
 50
90
  0
SEQEND
  8
1
  0
LINE
  8
1
 10
41.7985911217181
 20
4.47056631771151
 11
38.7412396499435
 21
-9.57766318437742
  0
ARC
  8
1
 10
34.1454819259064
 20
6.93320610687025
 40
8.03956933511768
 50
342.162711720608
 51
90
  0
ENDBLK
  8
0
  0
ENDSEC
  0
SECTION
  2
ENTITIES
  0
INSERT
  8
1
  2
B2893_00995641
 10
58
 20
16
  0
ENDSEC
  0
EOF
