  0
SECTION
  2
HEADER
  9
$LIMMIN
 10
0
 20
0
  9
$LIMMAX
 10
52.5
 20
74.25
  9
$EXTMIN
 10
0
 20
76
  9
$EXTMAX
 10
0
 20
32
  0
ENDSEC
  0
SECTION
  2
TABLES
  0
TABLE
  2
LTYPE
 70
9
  0
LTYPE
  2
CONTINUOUS
 70
64
  3
Solid line
 72
65
 73
0
 40
0
  0
LTYPE
  2
DASHED
 70
64
  3
__ __ __ __ __ __ __ __ __
 72
65
 73
2
 40
0.75
 49
0.5
 49
-0.25
  0
LTYPE
  2
DOT
 70
64
  3
...........................
 72
65
 73
2
 40
0.25
 49
0
 49
-0.25
  0
LTYPE
  2
DASHDOT
 70
64
  3
__ . __ . __ . __ . __ . __ . 
 72
65
 73
4
 40
1
 49
0.5
 49
-0.25
 49
0
 49
-0.25
  0
ENDTAB
  0
TABLE
  2
LAYER
 70
10
  0
LAYER
  2
1
 70
0
 62
7
  6
CONTINUOUS
  0
LAYER
  2
CONNECTIONS
 70
0
 62
-7
  6
CONTINUOUS
  0
ENDTAB
  0
ENDSEC
  0
SECTION
  2
BLOCKS
  0
BLOCK
  8
0
  2
TRICON
 70
0
 10
0
 20
0
  0
POLYLINE
  8
1
 70
1
 66
1
 40
0.5
 41
0.5
  0
VERTEX
  8
1
 10
-0.25
 20
0
 42
1
  0
VERTEX
  8
1
 10
0.25
 20
0
 42
1
  0
SEQEND
  8
1
  0
ENDBLK
  8
0
  0
BLOCK
  8
0
  2
TRICONSMALL
 70
0
 10
0
 20
0
  0
POLYLINE
  8
1
 70
1
 66
1
 40
0.25
 41
0.25
  0
VERTEX
  8
1
 10
-0.125
 20
0
 42
1
  0
VERTEX
  8
1
 10
0.125
 20
0
 42
1
  0
SEQEND
  8
1
  0
ENDBLK
  8
0
  0
BLOCK
  8
0
  2
TRICONCIRCLE
 70
0
 10
0
 20
0
  0
CIRCLE
  8
1
 10
0
 20
0
 40
0.5
  0
ENDBLK
  8
0
  0
BLOCK
  8
0
  2
LCBP0
 70
0
 10
0
 20
0
  0
LINE
  8
1
 10
0
 20
-0.46875
 11
0
 21
0.46875
  0
ENDBLK
  8
0
  0
BLOCK
  8
0
  2
LCBP1
 70
0
 10
0
 20
0
  0
LINE
  8
1
 10
0
 20
-0.625
 11
0
 21
0.625
  0
ENDBLK
  8
0
  0
BLOCK
  8
0
  2
LCBP2
 70
0
 10
0
 20
0
  0
LINE
  8
1
 10
0
 20
-0.9375
 11
0
 21
0.9375
  0
ENDBLK
  8
0
  0
BLOCK
  8
0
  2
LCA1
 70
0
 10
0
 20
0
  0
SOLID
  8
1
 62
7 
 10
0
 20
0
 11
-1.4
 21
-0.275
 12
-1.4
 22
0.275
 13
-1.4
 23
0.275
  0
ENDBLK
  8
0
  0
BLOCK
  8
0
  2
LCA2
 70
0
 10
0
 20
0
  0
SOLID
  8
1
 62
7 
 10
0
 20
0
 11
-1.65
 21
-0.525
 12
-1.65
 22
0.525
 13
-1.65
 23
0.525
  0
ENDBLK
  8
0
  0
BLOCK
  8
0
  2
LCA3
 70
0
 10
0
 20
0
  0
SOLID
  8
1
 62
7 
 10
0
 20
0
 11
-2.15
 21
-1.15
 12
-2.15
 22
1.15
 13
-2.15
 23
1.15
  0
ENDBLK
  8
0
  0
BLOCK
  8
0
  2
LCA1R
 70
0
 10
0
 20
0
  0
SOLID
  8
1
 62
7 
 10
0
 20
0
 11
1.4
 21
-0.275
 12
1.4
 22
0.275
 13
1.4
 23
0.275
  0
ENDBLK
  8
0
  0
BLOCK
  8
0
  2
LCA2R
 70
0
 10
0
 20
0
  0
SOLID
  8
1
 62
7 
 10
0
 20
0
 11
1.65
 21
-0.525
 12
1.65
 22
0.525
 13
1.65
 23
0.525
  0
ENDBLK
  8
0
  0
BLOCK
  8
0
  2
LCA3R
 70
0
 10
0
 20
0
  0
SOLID
  8
1
 62
7 
 10
0
 20
0
 11
2.15
 21
-1.15
 12
2.15
 22
1.15
 13
2.15
 23
1.15
  0
ENDBLK
  8
0
  0
BLOCK
  8
0
  2
B2917_00995638
 70
0
 10
0
 20
0
  0
POLYLINE
  8
1
 66
1
  0
VERTEX
  8
1
 10
-38
 20
16
  0
VERTEX
  8
1
 10
38
 20
16
  0
VERTEX
  8
1
 10
38
 20
-16
  0
VERTEX
  8
1
 10
-38
 20
-16
  0
VERTEX
  8
1
 10
-38
 20
16
  0
SEQEND
  8
1
  0
TEXT
  8
1
 40
6.075
 41
0.75
  1
6
  7
STANDARD
 10
26.7347736358643
 20
-10.4130200386047
  0
TEXT
  8
1
 40
6.075
 41
0.75
  1
9
  7
STANDARD
 72
2
 10
-25.8700873057048
 20
-10.4130200386047
 11
-25.8700873057048
 21
-10.4130200386047
  0
TEXT
  8
1
 40
6.075
 41
0.75
  1
1
  7
STANDARD
 10
28.7347736358643
 20
2.58697996139526
  0
TEXT
  8
1
 40
6
 41
0.75
  1
5
  7
STANDARD
 72
2
 10
-27.8700873057048
 20
2.54947996139526
 11
-27.8700873057048
 21
2.54947996139526
  0
CIRCLE
  8
1
 10
15
 20
-5
 40
3
  0
CIRCLE
  8
1
 10
5
 20
-5
 40
3
  0
CIRCLE
  8
1
 10
-5
 20
-5
 40
3
  0
CIRCLE
  8
1
 10
-15
 20
-5
 40
3
  0
CIRCLE
  8
1
 10
20
 20
5
 40
3
  0
CIRCLE
  8
1
 10
10
 20
5
 40
3
  0
CIRCLE
  8
1
 10
0
 20
5
 40
3
  0
CIRCLE
  8
1
 10
-10
 20
5
 40
3
  0
CIRCLE
  8
1
 10
-20
 20
5
 40
3
  0
LINE
  8
1
 10
-16
 20
-15
 11
16
 21
-15
  0
LINE
  8
1
 10
-19
 20
15
 11
19
 21
15
  0
LINE
  8
1
 10
26.6531091958116
 20
4.53736021084126
 11
23.5957577240371
 21
-9.51086929124767
  0
ARC
  8
1
 10
16
 20
-7
 40
8
 50
270
 51
341.708074025052
  0
ARC
  8
1
 10
19
 20
7
 40
8.03956933511768
 50
342.162711720608
 51
90
  0
LINE
  8
1
 10
-26.6085862516062
 20
4.51565802384888
 11
-23.446723370774
 21
-9.75214071895209
  0
POLYLINE
  8
1
 70
0
 66
1
 40
0
 41
0
  0
VERTEX
  8
1
 10
-23.446723370774
 20
-9.75214071895211
 42
0
 70
2
 50
90
  0
VERTEX
  8
1
 10
-23.2837593776999
 20
-10.1637594268695
 42
0
 70
2
 50
90
  0
VERTEX
  8
1
 10
-23.0980368782171
 20
-10.5657339342745
 42
0
 70
2
 50
90
  0
VERTEX
  8
1
 10
-22.8901301952837
 20
-10.9568211866701
 42
0
 70
2
 50
90
  0
VERTEX
  8
1
 10
-22.6606822535937
 20
-11.3358117969963
 42
0
 70
2
 50
90
  0
VERTEX
  8
1
 10
-22.4104025914148
 20
-11.7015337855036
 42
0
 70
2
 50
90
  0
VERTEX
  8
1
 10
-22.1400651664331
 20
-12.0528562039502
 42
0
 70
2
 50
90
  0
VERTEX
  8
1
 10
-21.8505059623878
 20
-12.3886926329138
 42
0
 70
2
 50
90
  0
VERTEX
  8
1
 10
-21.5426204038992
 20
-12.7080045414043
 42
0
 70
2
 50
90
  0
VERTEX
  8
1
 10
-21.2173605874834
 20
-13.0098044983868
 42
0
 70
2
 50
90
  0
VERTEX
  8
1
 10
-20.8757323373158
 20
-13.2931592262859
 42
0
 70
2
 50
90
  0
VERTEX
  8
1
 10
-20.5187920948493
 20
-13.5571924870262
 42
0
 70
2
 50
90
  0
VERTEX
  8
1
 10
-20.1476436519047
 20
-13.8010877916861
 42
0
 70
2
 50
90
  0
VERTEX
  8
1
 10
-19.763434737337
 20
-14.0240909253847
 42
0
 70
2
 50
90
  0
VERTEX
  8
1
 10
-19.3673534678305
 20
-14.2255122795943
 42
0
 70
2
 50
90
  0
VERTEX
  8
1
 10
-18.9606246738014
 20
-14.4047289846666
 42
0
 70
2
 50
90
  0
VERTEX
  8
1
 10
-18.5445061117669
 20
-14.5611868359765
 42
0
 70
2
 50
90
  0
VERTEX
  8
1
 10
-18.1202845748948
 20
-14.6944020077289
 42
0
 70
2
 50
90
  0
VERTEX
  8
1
 10
-17.6892719137611
 20
-14.8039625491279
 42
0
 70
2
 50
90
  0
VERTEX
  8
1
 10
-17.2528009796208
 20
-14.8895296582813
 42
0
 70
2
 50
90
  0
VERTEX
  8
1
 10
-16.8122215027364
 20
-14.9508387299025
 42
0
 70
2
 50
90
  0
VERTEX
  8
1
 10
-16.3688959185109
 20
-14.9877001735675
 42
0
 70
2
 50
90
  0
VERTEX
  8
1
 10
-15.9241951543311
 20
-15
 42
0
 70
2
 50
90
  0
SEQEND
  8
1
  0
ARC
  8
1
 10
-18.9241951543312
 20
6.95494756470312
 40
8.06225774829856
 50
90
 51
197.611225192215
  0
ENDBLK
  8
0
  0
ENDSEC
  0
SECTION
  2
ENTITIES
  0
INSERT
  8
1
  2
B2917_00995638
 10
38
 20
16
  0
ENDSEC
  0
EOF
