  0
SECTION
  2
HEADER
  9
$LIMMIN
 10
0
 20
0
  9
$LIMMAX
 10
52.5
 20
74.25
  9
$EXTMIN
 10
0
 20
92
  9
$EXTMAX
 10
0
 20
92.4505197207133
  0
ENDSEC
  0
SECTION
  2
TABLES
  0
TABLE
  2
LTYPE
 70
9
  0
LTYPE
  2
CONTINUOUS
 70
64
  3
Solid line
 72
65
 73
0
 40
0
  0
LTYPE
  2
DASHED
 70
64
  3
__ __ __ __ __ __ __ __ __
 72
65
 73
2
 40
0.75
 49
0.5
 49
-0.25
  0
LTYPE
  2
DOT
 70
64
  3
...........................
 72
65
 73
2
 40
0.25
 49
0
 49
-0.25
  0
LTYPE
  2
DASHDOT
 70
64
  3
__ . __ . __ . __ . __ . __ . 
 72
65
 73
4
 40
1
 49
0.5
 49
-0.25
 49
0
 49
-0.25
  0
ENDTAB
  0
TABLE
  2
LAYER
 70
10
  0
LAYER
  2
1
 70
0
 62
7
  6
CONTINUOUS
  0
LAYER
  2
CONNECTIONS
 70
0
 62
-7
  6
CONTINUOUS
  0
ENDTAB
  0
ENDSEC
  0
SECTION
  2
BLOCKS
  0
BLOCK
  8
0
  2
TRICON
 70
0
 10
0
 20
0
  0
POLYLINE
  8
1
 70
1
 66
1
 40
0.5
 41
0.5
  0
VERTEX
  8
1
 10
-0.25
 20
0
 42
1
  0
VERTEX
  8
1
 10
0.25
 20
0
 42
1
  0
SEQEND
  8
1
  0
ENDBLK
  8
0
  0
BLOCK
  8
0
  2
TRICONSMALL
 70
0
 10
0
 20
0
  0
POLYLINE
  8
1
 70
1
 66
1
 40
0.25
 41
0.25
  0
VERTEX
  8
1
 10
-0.125
 20
0
 42
1
  0
VERTEX
  8
1
 10
0.125
 20
0
 42
1
  0
SEQEND
  8
1
  0
ENDBLK
  8
0
  0
BLOCK
  8
0
  2
TRICONCIRCLE
 70
0
 10
0
 20
0
  0
CIRCLE
  8
1
 10
0
 20
0
 40
0.5
  0
ENDBLK
  8
0
  0
BLOCK
  8
0
  2
LCBP0
 70
0
 10
0
 20
0
  0
LINE
  8
1
 10
0
 20
-0.46875
 11
0
 21
0.46875
  0
ENDBLK
  8
0
  0
BLOCK
  8
0
  2
LCBP1
 70
0
 10
0
 20
0
  0
LINE
  8
1
 10
0
 20
-0.625
 11
0
 21
0.625
  0
ENDBLK
  8
0
  0
BLOCK
  8
0
  2
LCBP2
 70
0
 10
0
 20
0
  0
LINE
  8
1
 10
0
 20
-0.9375
 11
0
 21
0.9375
  0
ENDBLK
  8
0
  0
BLOCK
  8
0
  2
LCA1
 70
0
 10
0
 20
0
  0
SOLID
  8
1
 62
7 
 10
0
 20
0
 11
-1.4
 21
-0.275
 12
-1.4
 22
0.275
 13
-1.4
 23
0.275
  0
ENDBLK
  8
0
  0
BLOCK
  8
0
  2
LCA2
 70
0
 10
0
 20
0
  0
SOLID
  8
1
 62
7 
 10
0
 20
0
 11
-1.65
 21
-0.525
 12
-1.65
 22
0.525
 13
-1.65
 23
0.525
  0
ENDBLK
  8
0
  0
BLOCK
  8
0
  2
LCA3
 70
0
 10
0
 20
0
  0
SOLID
  8
1
 62
7 
 10
0
 20
0
 11
-2.15
 21
-1.15
 12
-2.15
 22
1.15
 13
-2.15
 23
1.15
  0
ENDBLK
  8
0
  0
BLOCK
  8
0
  2
LCA1R
 70
0
 10
0
 20
0
  0
SOLID
  8
1
 62
7 
 10
0
 20
0
 11
1.4
 21
-0.275
 12
1.4
 22
0.275
 13
1.4
 23
0.275
  0
ENDBLK
  8
0
  0
BLOCK
  8
0
  2
LCA2R
 70
0
 10
0
 20
0
  0
SOLID
  8
1
 62
7 
 10
0
 20
0
 11
1.65
 21
-0.525
 12
1.65
 22
0.525
 13
1.65
 23
0.525
  0
ENDBLK
  8
0
  0
BLOCK
  8
0
  2
LCA3R
 70
0
 10
0
 20
0
  0
SOLID
  8
1
 62
7 
 10
0
 20
0
 11
2.15
 21
-1.15
 12
2.15
 22
1.15
 13
2.15
 23
1.15
  0
ENDBLK
  8
0
  0
BLOCK
  8
0
  2
B1987_00995628
 70
0
 10
0
 20
0
  0
POLYLINE
  8
1
 66
1
  0
VERTEX
  8
1
 10
-46
 20
45.7747399806976
  0
VERTEX
  8
1
 10
46
 20
45.7747399806976
  0
VERTEX
  8
1
 10
46
 20
-46.2252600193024
  0
VERTEX
  8
1
 10
-46
 20
-46.2252600193024
  0
VERTEX
  8
1
 10
-46
 20
45.7747399806976
  0
SEQEND
  8
1
  0
LINE
  8
1
 10
14
 20
-24.2252600193024
 11
14
 21
23.7747399806976
  0
LINE
  8
1
 10
-24
 20
29.7747399806976
 11
9
 21
29.7747399806976
  0
LINE
  8
1
 10
-24
 20
-30.2252600193024
 11
9
 21
-30.2252600193024
  0
ARC
  8
1
 10
8
 20
-24.2252600193024
 40
6
 50
270
 51
0
  0
ARC
  8
1
 10
-24
 20
-24.2252600193024
 40
6
 50
180
 51
270
  0
ARC
  8
1
 10
-24
 20
23.7747399806976
 40
6
 50
90
 51
180
  0
ARC
  8
1
 10
8
 20
23.7747399806976
 40
6
 50
0
 51
90
  0
LINE
  8
1
 10
-30
 20
23.7747399806976
 11
-30
 21
-24.2252600193024
  0
LINE
  8
1
  6
DASHDOT
 10
6
 20
22.7747399806976
 11
6
 21
-1.22526001930237
  0
LINE
  8
1
 10
6
 20
22.7747399806976
 11
6
 21
37.7747399806976
  0
LINE
  8
1
  6
DASHDOT
 10
-22
 20
22.7747399806976
 11
-22
 21
-1.22526001930237
  0
SOLID
  8
1
 10
-22.1683387635402
 20
35.6960333645386
 11
-17.1683387635402
 21
36.6960333645386
 12
-22.1683387635402
 22
35.6960333645386
 13
-17.1683387635402
 23
34.6960333645386
  0
SOLID
  8
1
 10
6.16910098212025
 20
35.7620227810001
 11
1.16910098212025
 21
34.7620227810001
 12
6.16910098212025
 22
35.7620227810001
 13
1.16910098212025
 23
36.7620227810001
  0
LINE
  8
1
 10
-22
 20
35.7747399806976
 11
6
 21
35.7747399806976
  0
LINE
  8
1
 10
-22
 20
18.7747399806976
 11
-22
 21
37.7747399806976
  0
POLYLINE
  8
1
 66
1
  0
VERTEX
  8
1
 10
7.5
 20
1.67473998069762
  0
VERTEX
  8
1
 10
7.5
 20
18.6747399806976
  0
VERTEX
  8
1
 10
4.5
 20
18.6747399806976
  0
VERTEX
  8
1
 10
4.5
 20
1.67473998069762
  0
VERTEX
  8
1
 10
7.5
 20
1.67473998069762
  0
SEQEND
  8
1
  0
POLYLINE
  8
1
 66
1
  0
VERTEX
  8
1
 10
-20.5
 20
1.67473998069762
  0
VERTEX
  8
1
 10
-20.5
 20
18.6747399806976
  0
VERTEX
  8
1
 10
-23.5
 20
18.6747399806976
  0
VERTEX
  8
1
 10
-23.5
 20
1.67473998069762
  0
VERTEX
  8
1
 10
-20.5
 20
1.67473998069762
  0
SEQEND
  8
1
  0
POLYLINE
  8
1
 66
1
  0
VERTEX
  8
1
 10
-16.5
 20
-17.7252600193024
  0
VERTEX
  8
1
 10
0.5
 20
-17.7252600193024
  0
VERTEX
  8
1
 10
0.5
 20
-14.7252600193024
  0
VERTEX
  8
1
 10
-16.5
 20
-14.7252600193024
  0
VERTEX
  8
1
 10
-16.5
 20
-17.7252600193024
  0
SEQEND
  8
1
  0
TEXT
  8
1
 40
6.075
 41
0.75
  1
11
  7
STANDARD
 72
1
 10
-8.06765683492025
 20
37.6172547499339
 11
-8.06765683492025
 21
37.6172547499339
  0
TEXT
  8
1
 40
7.59375
 41
0.75
  1
1
  7
STANDARD
 73
2
 10
15.1684670448303
 20
9.05944923559824
 11
15.1684670448303
 21
9.05944923559824
  0
TEXT
  8
1
 40
7.59375
 41
0.75
  1
2
  7
STANDARD
 72
2
 73
2
 10
-30.6684670448303
 20
8.74003072579702
 11
-30.6684670448303
 21
8.74003072579702
  0
LINE
  8
1
 10
-10.6
 20
-39.3752600193024
 11
-5.4
 21
-39.3752600193024
  0
LINE
  8
1
 10
-11.9
 20
-37.4252600193024
 11
-4.1
 21
-37.4252600193024
  0
LINE
  8
1
 10
-8
 20
-37.4252600193024
 11
-8
 21
-34.8252600193024
  0
LINE
  8
1
 10
-9.3
 20
-41.3252600193024
 11
-6.7
 21
-41.3252600193024
  0
CIRCLE
  8
1
 10
-8
 20
-38.2252600193024
 40
5.2
  0
CIRCLE
  8
1
 10
-8
 20
-0.225260019302368
 40
3.2
  0
CIRCLE
  8
1
 10
-8
 20
-0.225260019302368
 40
5
  0
ENDBLK
  8
0
  0
ENDSEC
  0
SECTION
  2
ENTITIES
  0
INSERT
  8
1
  2
B1987_00995628
 10
46
 20
46.2252600193024
  0
ENDSEC
  0
EOF
