  0
SECTION
  2
HEADER
  9
$LIMMIN
 10
0
 20
0
  9
$LIMMAX
 10
52.5
 20
74.25
  9
$EXTMIN
 10
0
 20
20
  9
$EXTMAX
 10
0
 20
15.9934635629193
  0
ENDSEC
  0
SECTION
  2
TABLES
  0
TABLE
  2
LTYPE
 70
9
  0
LTYPE
  2
CONTINUOUS
 70
64
  3
Solid line
 72
65
 73
0
 40
0
  0
LTYPE
  2
DASHED
 70
64
  3
__ __ __ __ __ __ __ __ __
 72
65
 73
2
 40
0.75
 49
0.5
 49
-0.25
  0
LTYPE
  2
DOT
 70
64
  3
...........................
 72
65
 73
2
 40
0.25
 49
0
 49
-0.25
  0
LTYPE
  2
DASHDOT
 70
64
  3
__ . __ . __ . __ . __ . __ . 
 72
65
 73
4
 40
1
 49
0.5
 49
-0.25
 49
0
 49
-0.25
  0
ENDTAB
  0
TABLE
  2
LAYER
 70
10
  0
LAYER
  2
1
 70
0
 62
7
  6
CONTINUOUS
  0
LAYER
  2
CONNECTIONS
 70
0
 62
-7
  6
CONTINUOUS
  0
ENDTAB
  0
ENDSEC
  0
SECTION
  2
BLOCKS
  0
BLOCK
  8
0
  2
TRICON
 70
0
 10
0
 20
0
  0
POLYLINE
  8
1
 70
1
 66
1
 40
0.5
 41
0.5
  0
VERTEX
  8
1
 10
-0.25
 20
0
 42
1
  0
VERTEX
  8
1
 10
0.25
 20
0
 42
1
  0
SEQEND
  8
1
  0
ENDBLK
  8
0
  0
BLOCK
  8
0
  2
TRICONSMALL
 70
0
 10
0
 20
0
  0
POLYLINE
  8
1
 70
1
 66
1
 40
0.25
 41
0.25
  0
VERTEX
  8
1
 10
-0.125
 20
0
 42
1
  0
VERTEX
  8
1
 10
0.125
 20
0
 42
1
  0
SEQEND
  8
1
  0
ENDBLK
  8
0
  0
BLOCK
  8
0
  2
TRICONCIRCLE
 70
0
 10
0
 20
0
  0
CIRCLE
  8
1
 10
0
 20
0
 40
0.5
  0
ENDBLK
  8
0
  0
BLOCK
  8
0
  2
LCBP0
 70
0
 10
0
 20
0
  0
LINE
  8
1
 10
0
 20
-0.46875
 11
0
 21
0.46875
  0
ENDBLK
  8
0
  0
BLOCK
  8
0
  2
LCBP1
 70
0
 10
0
 20
0
  0
LINE
  8
1
 10
0
 20
-0.625
 11
0
 21
0.625
  0
ENDBLK
  8
0
  0
BLOCK
  8
0
  2
LCBP2
 70
0
 10
0
 20
0
  0
LINE
  8
1
 10
0
 20
-0.9375
 11
0
 21
0.9375
  0
ENDBLK
  8
0
  0
BLOCK
  8
0
  2
LCA1
 70
0
 10
0
 20
0
  0
SOLID
  8
1
 62
7 
 10
0
 20
0
 11
-1.4
 21
-0.275
 12
-1.4
 22
0.275
 13
-1.4
 23
0.275
  0
ENDBLK
  8
0
  0
BLOCK
  8
0
  2
LCA2
 70
0
 10
0
 20
0
  0
SOLID
  8
1
 62
7 
 10
0
 20
0
 11
-1.65
 21
-0.525
 12
-1.65
 22
0.525
 13
-1.65
 23
0.525
  0
ENDBLK
  8
0
  0
BLOCK
  8
0
  2
LCA3
 70
0
 10
0
 20
0
  0
SOLID
  8
1
 62
7 
 10
0
 20
0
 11
-2.15
 21
-1.15
 12
-2.15
 22
1.15
 13
-2.15
 23
1.15
  0
ENDBLK
  8
0
  0
BLOCK
  8
0
  2
LCA1R
 70
0
 10
0
 20
0
  0
SOLID
  8
1
 62
7 
 10
0
 20
0
 11
1.4
 21
-0.275
 12
1.4
 22
0.275
 13
1.4
 23
0.275
  0
ENDBLK
  8
0
  0
BLOCK
  8
0
  2
LCA2R
 70
0
 10
0
 20
0
  0
SOLID
  8
1
 62
7 
 10
0
 20
0
 11
1.65
 21
-0.525
 12
1.65
 22
0.525
 13
1.65
 23
0.525
  0
ENDBLK
  8
0
  0
BLOCK
  8
0
  2
LCA3R
 70
0
 10
0
 20
0
  0
SOLID
  8
1
 62
7 
 10
0
 20
0
 11
2.15
 21
-1.15
 12
2.15
 22
1.15
 13
2.15
 23
1.15
  0
ENDBLK
  8
0
  0
BLOCK
  8
0
  2
B13434_00995607
 70
0
 10
0
 20
0
  0
TEXT
  8
1
 40
2.4
 41
0.75
  1
3
  7
STANDARD
 73
2
 10
-3.46499058697304
 20
-6.99673178145965
 11
-3.46499058697304
 21
-6.99673178145965
  0
TEXT
  8
1
 40
2.4
 41
0.75
  1
1
  7
STANDARD
 72
2
 73
2
 10
-7.96499058697305
 20
-6.99673178145965
 11
-7.96499058697305
 21
-6.99673178145965
  0
TEXT
  8
1
 40
2.4
 41
0.75
  1
2
  7
STANDARD
 73
2
 10
-5.33021161053261
 20
6.20326821854035
 11
-5.33021161053261
 21
6.20326821854035
  0
LINE
  8
1
 10
-6
 20
3.99673178145965
 11
-6
 21
7.99673178145965
  0
LINE
  8
1
 10
-3.96499058697304
 20
-3.99673178145965
 11
-3.96499058697304
 21
-7.99673178145965
  0
LINE
  8
1
 10
-7.96499058697304
 20
-3.99673178145965
 11
-7.96499058697304
 21
-7.99673178145965
  0
LINE
  8
1
 10
9.3
 20
5.49673178145965
 11
9.3
 21
6.49673178145965
  0
ARC
  8
1
 10
8.3
 20
6.49673178145965
 40
1
 50
0
 51
180
  0
LINE
  8
1
 10
7.3
 20
5.49673178145965
 11
7.3
 21
6.49673178145965
  0
ARC
  8
1
 10
5.75
 20
3.99673178145965
 40
0.5
 50
270
 51
90
  0
LINE
  8
1
 10
5.75
 20
3.49673178145965
 11
5
 21
3.49673178145965
  0
LINE
  8
1
 10
5
 20
4.49673178145965
 11
5.75
 21
4.49673178145965
  0
LINE
  8
1
 10
5
 20
2.64673178145965
 11
5
 21
4.49673178145965
  0
POLYLINE
  8
1
 66
1
  0
VERTEX
  8
1
 10
4
 20
7.99673178145965
  0
VERTEX
  8
1
 10
10
 20
7.99673178145965
  0
VERTEX
  8
1
 10
10
 20
1.99673178145965
  0
VERTEX
  8
1
 10
4
 20
1.99673178145965
  0
VERTEX
  8
1
 10
4
 20
7.99673178145965
  0
SEQEND
  8
1
  0
LINE
  8
1
 10
4
 20
7.99673178145965
 11
10
 21
1.99673178145965
  0
POLYLINE
  8
1
 66
1
  0
VERTEX
  8
1
 10
-1
 20
-2.00326821854035
  0
VERTEX
  8
1
 10
0
 20
-1.00326821854035
  0
VERTEX
  8
1
 10
2
 20
-1.00326821854035
  0
VERTEX
  8
1
 10
3
 20
-2.00326821854035
  0
VERTEX
  8
1
 10
2
 20
-3.00326821854035
  0
VERTEX
  8
1
 10
0
 20
-3.00326821854035
  0
VERTEX
  8
1
 10
-1
 20
-2.00326821854035
  0
SEQEND
  8
1
  0
POLYLINE
  8
1
 66
1
  0
VERTEX
  8
1
 10
-2
 20
-0.00326821854035053
  0
VERTEX
  8
1
 10
4
 20
-0.00326821854035053
  0
VERTEX
  8
1
 10
4
 20
-4.00326821854035
  0
VERTEX
  8
1
 10
-2
 20
-4.00326821854035
  0
VERTEX
  8
1
 10
-2
 20
-0.00326821854035053
  0
SEQEND
  8
1
  0
LINE
  8
1
 10
0
 20
-6.10326821854035
 11
2
 21
2.89673178145965
  0
INSERT
  8
1
  2
LCA1
 10
2
 20
2.89673178145965
 50
77.4711922908485
  0
LINE
  8
1
 10
-6
 20
3.99673178145965
 11
-6
 21
-4.00326821854035
  0
INSERT
  8
1
  2
LCA1
 10
-6
 20
-4.00326821854035
 50
-90
  0
INSERT
  8
1
  2
LCA1R
 10
-6
 20
3.99673178145965
 50
-90
  0
POLYLINE
  8
1
 66
1
  0
VERTEX
  8
1
 10
-10
 20
-4.00326821854035
  0
VERTEX
  8
1
 10
-2
 20
-4.00326821854035
  0
VERTEX
  8
1
 10
-2
 20
3.99673178145965
  0
VERTEX
  8
1
 10
-10
 20
3.99673178145965
  0
VERTEX
  8
1
 10
-10
 20
-4.00326821854035
  0
SEQEND
  8
1
  0
POLYLINE
  8
1
 66
1
  0
VERTEX
  8
1
 10
7.35774927429333
 20
-1.93214078149112
  0
VERTEX
  8
1
 10
8.49997756820632
 20
-2.50325700266857
  0
SEQEND
  8
1
  0
LINE
  8
1
 10
5.49997756820634
 20
-1.00325700266857
 11
6.64220720192971
 21
-0.43214346111786
  0
LINE
  8
1
 10
7.35774927429334
 20
-0.0743732238460251
 11
8.49997756820634
 21
0.496742997331429
  0
POLYLINE
  8
1
 66
1
  0
VERTEX
  8
1
 10
5.49997756820634
 20
-1.00325700266858
  0
VERTEX
  8
1
 10
6.64220720192972
 20
-1.57437054421928
  0
SEQEND
  8
1
  0
LINE
  8
1
 10
8.49997756820634
 20
0.496742997331429
 11
8.49997756820634
 21
-0.603257002668575
  0
LINE
  8
1
 10
8.49997756820634
 20
-1.40325700266857
 11
8.49997756820634
 21
-2.50325700266857
  0
POLYLINE
  8
1
 66
1
  0
VERTEX
  8
1
 10
4
 20
1.99673178145965
  0
VERTEX
  8
1
 10
10
 20
1.99673178145965
  0
VERTEX
  8
1
 10
10
 20
-4.00326821854035
  0
VERTEX
  8
1
 10
4
 20
-4.00326821854035
  0
VERTEX
  8
1
 10
4
 20
1.99673178145965
  0
SEQEND
  8
1
  0
CIRCLE
  8
CONNECTIONS
 10
-5.96499058697304
 20
8.00326821854035
 40
0
  0
CIRCLE
  8
CONNECTIONS
 10
-7.96499058697304
 20
-7.99673178145965
 40
0
  0
CIRCLE
  8
CONNECTIONS
 10
-3.96499058697304
 20
-7.99673178145965
 40
0
  0
ENDBLK
  8
0
  0
ENDSEC
  0
SECTION
  2
ENTITIES
  0
INSERT
  8
1
  2
B13434_00995607
 10
10
 20
7.99673178145965
  0
ENDSEC
  0
EOF
