  0
SECTION
  2
HEADER
  9
$LIMMIN
 10
0
 20
0
  9
$LIMMAX
 10
52.5
 20
74.25
  9
$EXTMIN
 10
0
 20
42.9855810008482
  9
$EXTMAX
 10
0
 20
16.0186978188587
  0
ENDSEC
  0
SECTION
  2
TABLES
  0
TABLE
  2
LTYPE
 70
9
  0
LTYPE
  2
CONTINUOUS
 70
64
  3
Solid line
 72
65
 73
0
 40
0
  0
LTYPE
  2
DASHED
 70
64
  3
__ __ __ __ __ __ __ __ __
 72
65
 73
2
 40
0.75
 49
0.5
 49
-0.25
  0
LTYPE
  2
DOT
 70
64
  3
...........................
 72
65
 73
2
 40
0.25
 49
0
 49
-0.25
  0
LTYPE
  2
DASHDOT
 70
64
  3
__ . __ . __ . __ . __ . __ . 
 72
65
 73
4
 40
1
 49
0.5
 49
-0.25
 49
0
 49
-0.25
  0
ENDTAB
  0
TABLE
  2
LAYER
 70
10
  0
LAYER
  2
1
 70
0
 62
7
  6
CONTINUOUS
  0
LAYER
  2
CONNECTIONS
 70
0
 62
-7
  6
CONTINUOUS
  0
ENDTAB
  0
ENDSEC
  0
SECTION
  2
BLOCKS
  0
BLOCK
  8
0
  2
TRICON
 70
0
 10
0
 20
0
  0
POLYLINE
  8
1
 70
1
 66
1
 40
0.5
 41
0.5
  0
VERTEX
  8
1
 10
-0.25
 20
0
 42
1
  0
VERTEX
  8
1
 10
0.25
 20
0
 42
1
  0
SEQEND
  8
1
  0
ENDBLK
  8
0
  0
BLOCK
  8
0
  2
TRICONSMALL
 70
0
 10
0
 20
0
  0
POLYLINE
  8
1
 70
1
 66
1
 40
0.25
 41
0.25
  0
VERTEX
  8
1
 10
-0.125
 20
0
 42
1
  0
VERTEX
  8
1
 10
0.125
 20
0
 42
1
  0
SEQEND
  8
1
  0
ENDBLK
  8
0
  0
BLOCK
  8
0
  2
TRICONCIRCLE
 70
0
 10
0
 20
0
  0
CIRCLE
  8
1
 10
0
 20
0
 40
0.5
  0
ENDBLK
  8
0
  0
BLOCK
  8
0
  2
LCBP0
 70
0
 10
0
 20
0
  0
LINE
  8
1
 10
0
 20
-0.46875
 11
0
 21
0.46875
  0
ENDBLK
  8
0
  0
BLOCK
  8
0
  2
LCBP1
 70
0
 10
0
 20
0
  0
LINE
  8
1
 10
0
 20
-0.625
 11
0
 21
0.625
  0
ENDBLK
  8
0
  0
BLOCK
  8
0
  2
LCBP2
 70
0
 10
0
 20
0
  0
LINE
  8
1
 10
0
 20
-0.9375
 11
0
 21
0.9375
  0
ENDBLK
  8
0
  0
BLOCK
  8
0
  2
LCA1
 70
0
 10
0
 20
0
  0
SOLID
  8
1
 62
7 
 10
0
 20
0
 11
-1.4
 21
-0.275
 12
-1.4
 22
0.275
 13
-1.4
 23
0.275
  0
ENDBLK
  8
0
  0
BLOCK
  8
0
  2
LCA2
 70
0
 10
0
 20
0
  0
SOLID
  8
1
 62
7 
 10
0
 20
0
 11
-1.65
 21
-0.525
 12
-1.65
 22
0.525
 13
-1.65
 23
0.525
  0
ENDBLK
  8
0
  0
BLOCK
  8
0
  2
LCA3
 70
0
 10
0
 20
0
  0
SOLID
  8
1
 62
7 
 10
0
 20
0
 11
-2.15
 21
-1.15
 12
-2.15
 22
1.15
 13
-2.15
 23
1.15
  0
ENDBLK
  8
0
  0
BLOCK
  8
0
  2
LCA1R
 70
0
 10
0
 20
0
  0
SOLID
  8
1
 62
7 
 10
0
 20
0
 11
1.4
 21
-0.275
 12
1.4
 22
0.275
 13
1.4
 23
0.275
  0
ENDBLK
  8
0
  0
BLOCK
  8
0
  2
LCA2R
 70
0
 10
0
 20
0
  0
SOLID
  8
1
 62
7 
 10
0
 20
0
 11
1.65
 21
-0.525
 12
1.65
 22
0.525
 13
1.65
 23
0.525
  0
ENDBLK
  8
0
  0
BLOCK
  8
0
  2
LCA3R
 70
0
 10
0
 20
0
  0
SOLID
  8
1
 62
7 
 10
0
 20
0
 11
2.15
 21
-1.15
 12
2.15
 22
1.15
 13
2.15
 23
1.15
  0
ENDBLK
  8
0
  0
BLOCK
  8
0
  2
B129222_00995604
 70
0
 10
0
 20
0
  0
LINE
  8
1
 10
-2.50720949957592
 20
-4.99065109057064
 11
15.4927905004241
 21
-4.99065109057064
  0
LINE
  8
1
 10
-2.50720949957592
 20
5.00934890942936
 11
15.4927905004241
 21
5.00934890942936
  0
TEXT
  8
1
 40
2.47464580535889
 41
0.75
  1
1
  7
STANDARD
 72
2
 10
10.5921203852711
 20
-8.79779338005021
 11
10.5921203852711
 21
-8.79779338005021
  0
TEXT
  8
1
 40
2.475
 41
0.75
  1
3
  7
STANDARD
 10
14.9927905004241
 20
-8.79761628272966
  0
TEXT
  8
1
 40
2.475
 41
0.75
  1
2
  7
STANDARD
 72
2
 10
14.4927905004241
 20
5.64684890942936
 11
14.4927905004241
 21
5.64684890942936
  0
TEXT
  8
1
 40
2.475
 41
0.75
  1
4
  7
STANDARD
 72
2
 10
9.99279050042408
 20
5.64684890942936
 11
9.99279050042408
 21
5.64684890942936
  0
LINE
  8
1
 10
10.4927905004241
 20
8.00934890942936
 11
10.4927905004241
 21
4.00934890942936
  0
LINE
  8
1
 10
14.4927905004241
 20
-3.99065109057064
 11
14.4927905004241
 21
-7.99065109057064
  0
LINE
  8
1
 10
10.4927905004241
 20
-3.99065109057064
 11
10.4927905004241
 21
-7.99065109057064
  0
LINE
  8
1
 10
14.4927905004241
 20
8.00934890942936
 11
14.4927905004241
 21
4.00934890942936
  0
POLYLINE
  8
1
 66
1
  0
VERTEX
  8
1
 10
21.4927905004241
 20
-1.99065109057064
  0
VERTEX
  8
1
 10
21.0761238337574
 20
-3.99065109057064
  0
VERTEX
  8
1
 10
20.2427905004241
 20
0.00934890942935951
  0
VERTEX
  8
1
 10
19.4094571670908
 20
-3.99065109057064
  0
VERTEX
  8
1
 10
18.5761238337574
 20
0.00934890942935951
  0
VERTEX
  8
1
 10
17.7427905004241
 20
-3.99065109057064
  0
VERTEX
  8
1
 10
16.9094571670908
 20
0.00934890942935951
  0
VERTEX
  8
1
 10
16.4927905004241
 20
-1.99065109057064
  0
SEQEND
  8
1
  0
POLYLINE
  8
1
 66
1
  0
VERTEX
  8
1
 10
-14.5072094995759
 20
-1.99065109057064
  0
VERTEX
  8
1
 10
-13.5072094995759
 20
-0.990651090570642
  0
VERTEX
  8
1
 10
-11.5072094995759
 20
-0.990651090570642
  0
VERTEX
  8
1
 10
-10.5072094995759
 20
-1.99065109057064
  0
VERTEX
  8
1
 10
-11.5072094995759
 20
-2.99065109057064
  0
VERTEX
  8
1
 10
-13.5072094995759
 20
-2.99065109057064
  0
VERTEX
  8
1
 10
-14.5072094995759
 20
-1.99065109057064
  0
SEQEND
  8
1
  0
POLYLINE
  8
1
 66
1
  0
VERTEX
  8
1
 10
-15.5099164378862
 20
0.00934890942935951
  0
VERTEX
  8
1
 10
-9.5099164378862
 20
0.00934890942935951
  0
VERTEX
  8
1
 10
-9.5099164378862
 20
-3.99065109057064
  0
VERTEX
  8
1
 10
-15.5099164378862
 20
-3.99065109057064
  0
VERTEX
  8
1
 10
-15.5099164378862
 20
0.00934890942935951
  0
SEQEND
  8
1
  0
LINE
  8
1
 10
-16.5072094995759
 20
-0.990651090570642
 11
-17.6494391332993
 21
-0.419537549019931
  0
LINE
  8
1
 10
-18.3649812056629
 20
-0.0617673117480955
 11
-19.5072094995759
 21
0.509348909429358
  0
POLYLINE
  8
1
 66
1
  0
VERTEX
  8
1
 10
-16.5072094995759
 20
-0.990651090570642
  0
VERTEX
  8
1
 10
-17.6494391332993
 20
-1.56176463212135
  0
SEQEND
  8
1
  0
POLYLINE
  8
1
 66
1
  0
VERTEX
  8
1
 10
-18.3649812056629
 20
-1.91953486939319
  0
VERTEX
  8
1
 10
-19.5072094995759
 20
-2.49065109057064
  0
SEQEND
  8
1
  0
LINE
  8
1
 10
-19.5072094995759
 20
0.509348909429358
 11
-19.5072094995759
 21
-0.590651090570645
  0
LINE
  8
1
 10
-19.5072094995759
 20
-1.39065109057064
 11
-19.5072094995759
 21
-2.49065109057064
  0
POLYLINE
  8
1
 66
1
  0
VERTEX
  8
1
 10
-21.4927905004241
 20
2.03818690773306
  0
VERTEX
  8
1
 10
-15.4927905004241
 20
2.03818690773306
  0
VERTEX
  8
1
 10
-15.4927905004241
 20
-3.96181309226694
  0
VERTEX
  8
1
 10
-21.4927905004241
 20
-3.96181309226694
  0
VERTEX
  8
1
 10
-21.4927905004241
 20
2.03818690773306
  0
SEQEND
  8
1
  0
TEXT
  8
1
 40
2.475
 41
0.75
  1
14
  7
STANDARD
 72
2
 10
-10.09999221402
 20
-8.77184827364648
 11
-10.09999221402
 21
-8.77184827364648
  0
LINE
  8
1
 10
-9.49714320736715
 20
-4.00934890942936
 11
-9.49714320736715
 21
-8.00934890942936
  0
TEXT
  8
1
 40
2.475
 41
0.75
  1
84
  7
STANDARD
 10
-5.6104539776223
 20
-8.93120084134478
  0
LINE
  8
1
 10
-5.50760497096947
 20
-3.96870147712766
 11
-5.50760497096947
 21
-7.96870147712766
  0
LINE
  8
1
 10
-9.50720949957592
 20
0.00934890942935832
 11
-9.50720949957592
 21
-3.99065109057064
  0
LINE
  8
1
 10
-9.50720949957592
 20
0.00934890942935832
 11
-6.04310788443816
 21
-1.99065109057064
  0
LINE
  8
1
 10
-9.50720949957592
 20
-3.99065109057064
 11
-6.04310788443816
 21
-1.99065109057064
  0
POLYLINE
  8
1
 66
1
  0
VERTEX
  8
1
 10
-9.50720949957592
 20
0.00934890942935951
  0
VERTEX
  8
1
 10
-3.50720949957592
 20
0.00934890942935951
  0
VERTEX
  8
1
 10
-3.50720949957592
 20
-3.99065109057064
  0
VERTEX
  8
1
 10
-9.50720949957592
 20
-3.99065109057064
  0
VERTEX
  8
1
 10
-9.50720949957592
 20
0.00934890942935951
  0
SEQEND
  8
1
  0
SOLID
  8
1
 10
0.300759478745786
 20
-1.75841804353701
 11
1.43213032864426
 21
-0.627047193638534
 12
1.85639439735619
 22
-1.05131126235046
 13
1.85639439735619
 23
-1.05131126235046
  0
SOLID
  8
1
 10
1.85639439735619
 20
-1.05131126235046
 11
0.725023547457715
 21
-2.18268211224894
 12
0.300759478745786
 22
-1.75841804353701
 13
0.300759478745786
 23
-1.75841804353701
  0
SOLID
  8
1
 10
3.12918660349198
 20
-1.05131126235046
 11
3.5534506722039
 21
-0.627047193638534
 12
4.68482152210238
 22
-1.75841804353701
 13
4.68482152210238
 23
-1.75841804353701
  0
SOLID
  8
1
 10
4.68482152210238
 20
-1.75841804353701
 11
4.26055745339045
 21
-2.18268211224894
 12
3.12918660349198
 22
-1.05131126235046
 13
3.12918660349198
 23
-1.05131126235046
  0
SOLID
  8
1
 10
3.12918660349198
 20
1.07000908120918
 11
4.26055745339045
 21
2.20137993110766
 12
4.68482152210238
 22
1.77711586239573
 13
4.68482152210238
 23
1.77711586239573
  0
SOLID
  8
1
 10
4.68482152210238
 20
1.77711586239573
 11
3.5534506722039
 21
0.645745012497251
 12
3.12918660349198
 22
1.07000908120918
 13
3.12918660349198
 23
1.07000908120918
  0
SOLID
  8
1
 10
0.300759478745786
 20
1.77711586239573
 11
0.725023547457715
 21
2.20137993110766
 12
1.85639439735619
 22
1.07000908120918
 13
1.85639439735619
 23
1.07000908120918
  0
SOLID
  8
1
 10
1.85639439735619
 20
1.07000908120918
 11
1.43213032864426
 21
0.645745012497251
 12
0.300759478745786
 22
1.77711586239573
 13
0.300759478745786
 23
1.77711586239573
  0
POLYLINE
  8
1
 66
1
  0
VERTEX
  8
1
 10
-0.335636624322107
 20
0.00934890942935951
  0
VERTEX
  8
1
 10
2.49279050042408
 20
-2.81907821531683
  0
VERTEX
  8
1
 10
5.32121762517027
 20
0.00934890942935951
  0
VERTEX
  8
1
 10
2.49279050042408
 20
2.83777603417555
  0
VERTEX
  8
1
 10
-0.335636624322107
 20
0.00934890942935951
  0
SEQEND
  8
1
  0
POLYLINE
  8
1
 66
1
  0
VERTEX
  8
1
 10
-3.50720949957592
 20
4.00934890942936
  0
VERTEX
  8
1
 10
8.49279050042408
 20
4.00934890942936
  0
VERTEX
  8
1
 10
8.49279050042408
 20
-3.99065109057064
  0
VERTEX
  8
1
 10
-3.50720949957592
 20
-3.99065109057064
  0
VERTEX
  8
1
 10
-3.50720949957592
 20
4.00934890942936
  0
SEQEND
  8
1
  0
LINE
  8
1
 10
10.4927905004241
 20
4.00934890942936
 11
10.4927905004241
 21
2.00934890942936
  0
INSERT
  8
1
  2
LCBP1
 10
10.4927905004241
 20
2.00934890942936
 50
-90
  0
POLYLINE
  8
1
 66
1
  0
VERTEX
  8
1
 10
8.49279050042408
 20
4.00934890942936
  0
VERTEX
  8
1
 10
16.4927905004241
 20
4.00934890942936
  0
VERTEX
  8
1
 10
16.4927905004241
 20
-3.99065109057064
  0
VERTEX
  8
1
 10
8.49279050042408
 20
-3.99065109057064
  0
VERTEX
  8
1
 10
8.49279050042408
 20
4.00934890942936
  0
SEQEND
  8
1
  0
LINE
  8
1
 10
10.4927905004241
 20
-3.99065109057064
 11
10.4927905004241
 21
-1.99065109057064
  0
INSERT
  8
1
  2
LCBP1
 10
10.4927905004241
 20
-1.99065109057064
 50
90
  0
LINE
  8
1
 10
14.4927905004241
 20
4.00934890942936
 11
14.4927905004241
 21
2.00934890942936
  0
INSERT
  8
1
  2
LCBP1
 10
14.4927905004241
 20
2.00934890942936
 50
-90
  0
LINE
  8
1
 10
14.4927905004241
 20
-3.99065109057064
 11
14.4927905004241
 21
-1.99065109057064
  0
INSERT
  8
1
  2
LCBP1
 10
14.4927905004241
 20
-1.99065109057064
 50
90
  0
CIRCLE
  8
CONNECTIONS
 10
10.4927905004241
 20
8.00934890942936
 40
0
  0
CIRCLE
  8
CONNECTIONS
 10
14.4927905004241
 20
8.00934890942936
 40
0
  0
CIRCLE
  8
CONNECTIONS
 10
10.4927905004241
 20
-7.99065109057064
 40
0
  0
CIRCLE
  8
CONNECTIONS
 10
14.4927905004241
 20
-7.99065109057064
 40
0
  0
CIRCLE
  8
CONNECTIONS
 10
-9.49714320736715
 20
-8.00934890942936
 40
0
  0
CIRCLE
  8
CONNECTIONS
 10
-5.50760497096947
 20
-7.96870147712766
 40
0
  0
ENDBLK
  8
0
  0
ENDSEC
  0
SECTION
  2
ENTITIES
  0
INSERT
  8
1
  2
B129222_00995604
 10
21.4927905004241
 20
8.00934890942936
  0
ENDSEC
  0
EOF
