  0
SECTION
  2
HEADER
  9
$LIMMIN
 10
0
 20
0
  9
$LIMMAX
 10
52.5
 20
74.25
  9
$EXTMIN
 10
0
 20
65
  9
$EXTMAX
 10
0
 20
36
  0
ENDSEC
  0
SECTION
  2
TABLES
  0
TABLE
  2
LTYPE
 70
9
  0
LTYPE
  2
CONTINUOUS
 70
64
  3
Solid line
 72
65
 73
0
 40
0
  0
LTYPE
  2
DASHED
 70
64
  3
__ __ __ __ __ __ __ __ __
 72
65
 73
2
 40
0.75
 49
0.5
 49
-0.25
  0
LTYPE
  2
DOT
 70
64
  3
...........................
 72
65
 73
2
 40
0.25
 49
0
 49
-0.25
  0
LTYPE
  2
DASHDOT
 70
64
  3
__ . __ . __ . __ . __ . __ . 
 72
65
 73
4
 40
1
 49
0.5
 49
-0.25
 49
0
 49
-0.25
  0
ENDTAB
  0
TABLE
  2
LAYER
 70
10
  0
LAYER
  2
1
 70
0
 62
7
  6
CONTINUOUS
  0
LAYER
  2
CONNECTIONS
 70
0
 62
-7
  6
CONTINUOUS
  0
ENDTAB
  0
ENDSEC
  0
SECTION
  2
BLOCKS
  0
BLOCK
  8
0
  2
TRICON
 70
0
 10
0
 20
0
  0
POLYLINE
  8
1
 70
1
 66
1
 40
0.5
 41
0.5
  0
VERTEX
  8
1
 10
-0.25
 20
0
 42
1
  0
VERTEX
  8
1
 10
0.25
 20
0
 42
1
  0
SEQEND
  8
1
  0
ENDBLK
  8
0
  0
BLOCK
  8
0
  2
TRICONSMALL
 70
0
 10
0
 20
0
  0
POLYLINE
  8
1
 70
1
 66
1
 40
0.25
 41
0.25
  0
VERTEX
  8
1
 10
-0.125
 20
0
 42
1
  0
VERTEX
  8
1
 10
0.125
 20
0
 42
1
  0
SEQEND
  8
1
  0
ENDBLK
  8
0
  0
BLOCK
  8
0
  2
TRICONCIRCLE
 70
0
 10
0
 20
0
  0
CIRCLE
  8
1
 10
0
 20
0
 40
0.5
  0
ENDBLK
  8
0
  0
BLOCK
  8
0
  2
LCBP0
 70
0
 10
0
 20
0
  0
LINE
  8
1
 10
0
 20
-0.46875
 11
0
 21
0.46875
  0
ENDBLK
  8
0
  0
BLOCK
  8
0
  2
LCBP1
 70
0
 10
0
 20
0
  0
LINE
  8
1
 10
0
 20
-0.625
 11
0
 21
0.625
  0
ENDBLK
  8
0
  0
BLOCK
  8
0
  2
LCBP2
 70
0
 10
0
 20
0
  0
LINE
  8
1
 10
0
 20
-0.9375
 11
0
 21
0.9375
  0
ENDBLK
  8
0
  0
BLOCK
  8
0
  2
LCA1
 70
0
 10
0
 20
0
  0
SOLID
  8
1
 62
7 
 10
0
 20
0
 11
-1.4
 21
-0.275
 12
-1.4
 22
0.275
 13
-1.4
 23
0.275
  0
ENDBLK
  8
0
  0
BLOCK
  8
0
  2
LCA2
 70
0
 10
0
 20
0
  0
SOLID
  8
1
 62
7 
 10
0
 20
0
 11
-1.65
 21
-0.525
 12
-1.65
 22
0.525
 13
-1.65
 23
0.525
  0
ENDBLK
  8
0
  0
BLOCK
  8
0
  2
LCA3
 70
0
 10
0
 20
0
  0
SOLID
  8
1
 62
7 
 10
0
 20
0
 11
-2.15
 21
-1.15
 12
-2.15
 22
1.15
 13
-2.15
 23
1.15
  0
ENDBLK
  8
0
  0
BLOCK
  8
0
  2
LCA1R
 70
0
 10
0
 20
0
  0
SOLID
  8
1
 62
7 
 10
0
 20
0
 11
1.4
 21
-0.275
 12
1.4
 22
0.275
 13
1.4
 23
0.275
  0
ENDBLK
  8
0
  0
BLOCK
  8
0
  2
LCA2R
 70
0
 10
0
 20
0
  0
SOLID
  8
1
 62
7 
 10
0
 20
0
 11
1.65
 21
-0.525
 12
1.65
 22
0.525
 13
1.65
 23
0.525
  0
ENDBLK
  8
0
  0
BLOCK
  8
0
  2
LCA3R
 70
0
 10
0
 20
0
  0
SOLID
  8
1
 62
7 
 10
0
 20
0
 11
2.15
 21
-1.15
 12
2.15
 22
1.15
 13
2.15
 23
1.15
  0
ENDBLK
  8
0
  0
BLOCK
  8
0
  2
B214329_00995593
 70
0
 10
0
 20
0
  0
POLYLINE
  8
1
 66
1
  0
VERTEX
  8
1
 10
-32.5
 20
14.0277674039205
  0
VERTEX
  8
1
 10
32.5
 20
14.0277674039205
  0
VERTEX
  8
1
 10
32.5
 20
-13.9722325960795
  0
VERTEX
  8
1
 10
-32.5
 20
-13.9722325960795
  0
VERTEX
  8
1
 10
-32.5
 20
14.0277674039205
  0
SEQEND
  8
1
  0
TEXT
  8
1
 40
2.475
 41
0.75
  1
33
  7
STANDARD
 72
2
 10
-4.5
 20
-18.1347325960795
 11
-4.5
 21
-18.1347325960795
  0
LINE
  8
1
 10
-4.5
 20
-13.9722325960795
 11
-4.5
 21
-17.9722325960795
  0
TEXT
  8
1
 40
2.475
 41
0.75
  1
14
  7
STANDARD
 10
28.8173894882202
 20
-18.106965192159
  0
TEXT
  8
1
 40
2.475
 41
0.75
  1
1
  7
STANDARD
 72
2
 73
2
 10
16.7
 20
-16.8722325960795
 11
16.7
 21
-16.8722325960795
  0
TEXT
  8
1
 40
2.475
 41
0.75
  1
5
  7
STANDARD
 10
24.7347789764404
 20
-18.106965192159
  0
TEXT
  8
1
 40
2.475
 41
0.75
  1
3
  7
STANDARD
 72
2
 10
8.59999999999998
 20
-18.1347325960795
 11
8.59999999999998
 21
-18.1347325960795
  0
TEXT
  8
1
 40
2.475
 41
0.75
  1
12
  7
STANDARD
 72
2
 10
4.2
 20
-18.1347325960795
 11
4.2
 21
-18.1347325960795
  0
LINE
  8
1
 10
24.5
 20
-16
 11
24.5
 21
-14.6277674039205
  0
LINE
  8
1
 10
4.5
 20
-14
 11
4.5
 21
-18
  0
LINE
  8
1
 10
8.5
 20
-14
 11
8.5
 21
-18
  0
LINE
  8
1
 10
12.5
 20
-14
 11
12.5
 21
-18
  0
LINE
  8
1
 10
16.5
 20
-14
 11
16.5
 21
-18
  0
LINE
  8
1
 10
20.5
 20
-14
 11
20.5
 21
-18
  0
LINE
  8
1
 10
24.5
 20
-14
 11
24.5
 21
-18
  0
LINE
  8
1
 10
28.5
 20
-14
 11
28.5
 21
-18
  0
TEXT
  8
1
 40
2.475
 41
0.75
  1
4
  7
STANDARD
 72
2
 73
3
 10
20.5
 20
18.18125
 11
20.5
 21
18.18125
  0
TEXT
  8
1
 40
2.475
 41
0.75
  1
2
  7
STANDARD
 72
2
 73
3
 10
12.3
 20
18.18125
 11
12.3
 21
18.18125
  0
LINE
  8
1
 10
12.5
 20
14
 11
12.5
 21
18
  0
LINE
  8
1
 10
20.5
 20
14
 11
20.5
 21
18
  0
LINE
  8
1
 10
16.5
 20
14
 11
16.5
 21
18
  0
LINE
  8
1
 10
8.5
 20
14
 11
8.5
 21
18
  0
LINE
  8
1
 10
4.5
 20
14
 11
4.5
 21
18
  0
LINE
  8
1
 10
28.5
 20
14
 11
28.5
 21
18
  0
LINE
  8
1
 10
24.5
 20
14
 11
24.5
 21
18
  0
POLYLINE
  8
1
 66
1
  0
VERTEX
  8
1
 10
2.5
 20
0.0277674039204854
  0
VERTEX
  8
1
 10
2.08333333333328
 20
-1.97223259607951
  0
VERTEX
  8
1
 10
1.25
 20
2.02776740392049
  0
VERTEX
  8
1
 10
0.416666666666752
 20
-1.97223259607951
  0
VERTEX
  8
1
 10
-0.416666666666766
 20
2.02776740392049
  0
VERTEX
  8
1
 10
-1.25
 20
-1.97223259607951
  0
VERTEX
  8
1
 10
-2.08333333333324
 20
2.02776740392049
  0
VERTEX
  8
1
 10
-2.5
 20
0.0277674039204854
  0
SEQEND
  8
1
  0
LINE
  8
1
 10
-4.5
 20
-13.9722325960795
 11
-4.5
 21
-1.97223259607951
  0
LINE
  8
1
 10
-8.5
 20
-1.97223259607951
 11
-8.5
 21
-9.97223259607951
  0
LINE
  8
1
 10
4.5
 20
14.0277674039205
 11
4.5
 21
-13.9722325960795
  0
LINE
  8
1
 10
8.5
 20
14.0277674039205
 11
8.5
 21
-13.9722325960795
  0
LINE
  8
1
 10
24.5
 20
14.0277674039205
 11
24.5
 21
-13.9722325960795
  0
LINE
  8
1
 10
20.5
 20
14.0277674039205
 11
20.5
 21
-13.9722325960795
  0
LINE
  8
1
 10
12.5
 20
14.0277674039205
 11
12.5
 21
-13.9722325960795
  0
LINE
  8
1
 10
-8.5
 20
10.0277674039205
 11
-8.5
 21
6.02776740392049
  0
LINE
  8
1
 10
-8.5
 20
10.0277674039205
 11
28.5
 21
10.0277674039205
  0
LINE
  8
1
 10
28.5
 20
10.0277674039205
 11
28.5
 21
14.0277674039205
  0
LINE
  8
1
 10
16.5
 20
14.0277674039205
 11
16.5
 21
10.0277674039205
  0
POLYLINE
  8
1
 70
1
 66
1
 40
0.5
 41
0.5
  0
VERTEX
  8
1
 10
16.25
 20
10.0277674039205
 42
1
  0
VERTEX
  8
1
 10
16.75
 20
10.0277674039205
 42
1
  0
SEQEND
  8
1
  0
LINE
  8
1
 10
28.5
 20
-9.97223259607951
 11
28.5
 21
-13.9722325960795
  0
INSERT
  8
1
  2
LCBP1
 10
28.5
 20
-9.97223259607951
 50
-90
  0
LINE
  8
1
 10
16.5
 20
-9.97223259607951
 11
16.5
 21
-13.9722325960795
  0
LINE
  8
1
 10
-8.5
 20
-9.97223259607951
 11
16.5
 21
-9.97223259607951
  0
ARC
  8
1
 10
-28.5
 20
2.52776740392049
 40
1
 50
0
 51
180
  0
LINE
  8
1
 10
-29.5
 20
2.52776740392049
 11
-29.5
 21
1.52776740392049
  0
LINE
  8
1
 10
-27.5
 20
2.52776740392049
 11
-27.5
 21
1.52776740392049
  0
POLYLINE
  8
1
 70
1
 66
1
 40
0.5
 41
0.5
  0
VERTEX
  8
1
 10
-28.75
 20
0.0277674039204877
 42
1
  0
VERTEX
  8
1
 10
-28.25
 20
0.0277674039204877
 42
1
  0
SEQEND
  8
1
  0
POLYLINE
  8
1
 66
1
  0
VERTEX
  8
1
 10
-30.5
 20
1.52776740392049
  0
VERTEX
  8
1
 10
-26.5
 20
1.52776740392049
  0
VERTEX
  8
1
 10
-26.5
 20
-1.47223259607951
  0
VERTEX
  8
1
 10
-30.5
 20
-1.47223259607951
  0
VERTEX
  8
1
 10
-30.5
 20
1.52776740392049
  0
SEQEND
  8
1
  0
POLYLINE
  8
1
 66
1
  0
VERTEX
  8
1
 10
-23
 20
2.02776740392049
  0
VERTEX
  8
1
 10
-24.5
 20
2.02776740392049
  0
VERTEX
  8
1
 10
-24.5
 20
-1.97223259607951
  0
VERTEX
  8
1
 10
-23
 20
-1.97223259607951
  0
SEQEND
  8
1
  0
LINE
  8
1
 10
-21.5
 20
2.02776740392049
 11
-21.5
 21
4.02776740392049
  0
LINE
  8
1
 10
-22.75
 20
1.02776740392049
 11
-24.5
 21
1.02776740392049
  0
POLYLINE
  8
1
 66
1
  0
VERTEX
  8
1
 10
-22.75
 20
1.02776740392049
  0
VERTEX
  8
1
 10
-22.25
 20
1.02776740392048
  0
VERTEX
  8
1
 10
-21.5
 20
-0.271270701756173
  0
VERTEX
  8
1
 10
-20.75
 20
1.02776740392049
  0
VERTEX
  8
1
 10
-20.25
 20
1.02776740392049
  0
SEQEND
  8
1
  0
LINE
  8
1
 10
-18.5
 20
1.02776740392049
 11
-20.25
 21
1.02776740392049
  0
LINE
  8
1
 10
-18.5
 20
-0.972232596079512
 11
-24.5
 21
-0.972232596079512
  0
LINE
  8
1
 10
-16.5
 20
-1.97223259607951
 11
-16.5
 21
0.0277674039204877
  0
INSERT
  8
1
  2
LCBP1
 10
-16.5
 20
0.0277674039204877
 50
90
  0
POLYLINE
  8
1
 66
1
  0
VERTEX
  8
1
 10
-18.5
 20
6.02776740392049
  0
VERTEX
  8
1
 10
-10.5
 20
6.02776740392049
  0
VERTEX
  8
1
 10
-10.5
 20
-1.97223259607951
  0
VERTEX
  8
1
 10
-18.5
 20
-1.97223259607951
  0
VERTEX
  8
1
 10
-18.5
 20
6.02776740392049
  0
SEQEND
  8
1
  0
LINE
  8
1
 10
-16.5
 20
6.02776740392049
 11
-12.5
 21
-1.97223259607951
  0
INSERT
  8
1
  2
LCA1
 10
-12.5
 20
-1.97223259607951
 50
-63.434948822922
  0
POLYLINE
  8
1
 66
1
  0
VERTEX
  8
1
 10
-10.5
 20
6.02776740392049
  0
VERTEX
  8
1
 10
-2.5
 20
6.02776740392049
  0
VERTEX
  8
1
 10
-2.5
 20
-1.97223259607951
  0
VERTEX
  8
1
 10
-10.5
 20
-1.97223259607951
  0
VERTEX
  8
1
 10
-10.5
 20
6.02776740392049
  0
SEQEND
  8
1
  0
LINE
  8
1
 10
-4.5
 20
-1.97223259607951
 11
-4.5
 21
0.0277674039204877
  0
INSERT
  8
1
  2
LCBP1
 10
-4.5
 20
0.0277674039204877
 50
90
  0
LINE
  8
1
 10
-8.5
 20
-1.97223259607951
 11
-8.5
 21
6.02776740392049
  0
INSERT
  8
1
  2
LCA1
 10
-8.5
 20
6.02776740392049
 50
90
  0
CIRCLE
  8
CONNECTIONS
 10
-4.5
 20
-17.9722325960795
 40
0
  0
CIRCLE
  8
CONNECTIONS
 10
12.5
 20
18
 40
0
  0
CIRCLE
  8
CONNECTIONS
 10
20.5
 20
18
 40
0
  0
CIRCLE
  8
CONNECTIONS
 10
4.5
 20
-18
 40
0
  0
CIRCLE
  8
CONNECTIONS
 10
8.5
 20
-18
 40
0
  0
CIRCLE
  8
CONNECTIONS
 10
16.5
 20
-18
 40
0
  0
CIRCLE
  8
CONNECTIONS
 10
24.5
 20
-18
 40
0
  0
CIRCLE
  8
CONNECTIONS
 10
28.5
 20
-18
 40
0
  0
CIRCLE
  8
CONNECTIONS
 10
-18.5
 20
0.0277674039204877
 40
0
  0
ENDBLK
  8
0
  0
ENDSEC
  0
SECTION
  2
ENTITIES
  0
INSERT
  8
1
  2
B214329_00995593
 10
32.5
 20
18
  0
ENDSEC
  0
EOF
