  0
SECTION
  2
HEADER
  9
$LIMMIN
 10
0
 20
0
  9
$LIMMAX
 10
52.5
 20
74.25
  9
$EXTMIN
 10
0
 20
42.176572727682
  9
$EXTMAX
 10
0
 20
46.23798437074
  0
ENDSEC
  0
SECTION
  2
TABLES
  0
TABLE
  2
LTYPE
 70
9
  0
LTYPE
  2
CONTINUOUS
 70
64
  3
Solid line
 72
65
 73
0
 40
0
  0
LTYPE
  2
DASHED
 70
64
  3
__ __ __ __ __ __ __ __ __
 72
65
 73
2
 40
0.75
 49
0.5
 49
-0.25
  0
LTYPE
  2
DOT
 70
64
  3
...........................
 72
65
 73
2
 40
0.25
 49
0
 49
-0.25
  0
LTYPE
  2
DASHDOT
 70
64
  3
__ . __ . __ . __ . __ . __ . 
 72
65
 73
4
 40
1
 49
0.5
 49
-0.25
 49
0
 49
-0.25
  0
ENDTAB
  0
TABLE
  2
LAYER
 70
10
  0
LAYER
  2
1
 70
0
 62
7
  6
CONTINUOUS
  0
LAYER
  2
CONNECTIONS
 70
0
 62
-7
  6
CONTINUOUS
  0
ENDTAB
  0
ENDSEC
  0
SECTION
  2
BLOCKS
  0
BLOCK
  8
0
  2
TRICON
 70
0
 10
0
 20
0
  0
POLYLINE
  8
1
 70
1
 66
1
 40
0.5
 41
0.5
  0
VERTEX
  8
1
 10
-0.25
 20
0
 42
1
  0
VERTEX
  8
1
 10
0.25
 20
0
 42
1
  0
SEQEND
  8
1
  0
ENDBLK
  8
0
  0
BLOCK
  8
0
  2
TRICONSMALL
 70
0
 10
0
 20
0
  0
POLYLINE
  8
1
 70
1
 66
1
 40
0.25
 41
0.25
  0
VERTEX
  8
1
 10
-0.125
 20
0
 42
1
  0
VERTEX
  8
1
 10
0.125
 20
0
 42
1
  0
SEQEND
  8
1
  0
ENDBLK
  8
0
  0
BLOCK
  8
0
  2
TRICONCIRCLE
 70
0
 10
0
 20
0
  0
CIRCLE
  8
1
 10
0
 20
0
 40
0.5
  0
ENDBLK
  8
0
  0
BLOCK
  8
0
  2
LCBP0
 70
0
 10
0
 20
0
  0
LINE
  8
1
 10
0
 20
-0.46875
 11
0
 21
0.46875
  0
ENDBLK
  8
0
  0
BLOCK
  8
0
  2
LCBP1
 70
0
 10
0
 20
0
  0
LINE
  8
1
 10
0
 20
-0.625
 11
0
 21
0.625
  0
ENDBLK
  8
0
  0
BLOCK
  8
0
  2
LCBP2
 70
0
 10
0
 20
0
  0
LINE
  8
1
 10
0
 20
-0.9375
 11
0
 21
0.9375
  0
ENDBLK
  8
0
  0
BLOCK
  8
0
  2
LCA1
 70
0
 10
0
 20
0
  0
SOLID
  8
1
 62
7 
 10
0
 20
0
 11
-1.4
 21
-0.275
 12
-1.4
 22
0.275
 13
-1.4
 23
0.275
  0
ENDBLK
  8
0
  0
BLOCK
  8
0
  2
LCA2
 70
0
 10
0
 20
0
  0
SOLID
  8
1
 62
7 
 10
0
 20
0
 11
-1.65
 21
-0.525
 12
-1.65
 22
0.525
 13
-1.65
 23
0.525
  0
ENDBLK
  8
0
  0
BLOCK
  8
0
  2
LCA3
 70
0
 10
0
 20
0
  0
SOLID
  8
1
 62
7 
 10
0
 20
0
 11
-2.15
 21
-1.15
 12
-2.15
 22
1.15
 13
-2.15
 23
1.15
  0
ENDBLK
  8
0
  0
BLOCK
  8
0
  2
LCA1R
 70
0
 10
0
 20
0
  0
SOLID
  8
1
 62
7 
 10
0
 20
0
 11
1.4
 21
-0.275
 12
1.4
 22
0.275
 13
1.4
 23
0.275
  0
ENDBLK
  8
0
  0
BLOCK
  8
0
  2
LCA2R
 70
0
 10
0
 20
0
  0
SOLID
  8
1
 62
7 
 10
0
 20
0
 11
1.65
 21
-0.525
 12
1.65
 22
0.525
 13
1.65
 23
0.525
  0
ENDBLK
  8
0
  0
BLOCK
  8
0
  2
LCA3R
 70
0
 10
0
 20
0
  0
SOLID
  8
1
 62
7 
 10
0
 20
0
 11
2.15
 21
-1.15
 12
2.15
 22
1.15
 13
2.15
 23
1.15
  0
ENDBLK
  8
0
  0
BLOCK
  8
0
  2
B217972_00995586
 70
0
 10
0
 20
0
  0
LINE
  8
1
 10
-21.088286363841
 20
-3.11899218537
 11
-6.088286363841
 21
-13.11899218537
  0
LINE
  8
1
 10
-21.088286363841
 20
-3.11899218537
 11
-21.088286363841
 21
-23.11899218537
  0
LINE
  8
1
 10
-21.088286363841
 20
-23.11899218537
 11
-6.088286363841
 21
-13.11899218537
  0
LINE
  8
1
 10
8.911713636159
 20
-23.11899218537
 11
-6.088286363841
 21
-13.11899218537
  0
LINE
  8
1
 10
8.911713636159
 20
-3.11899218537
 11
-6.088286363841
 21
-13.11899218537
  0
LINE
  8
1
 10
8.911713636159
 20
-23.11899218537
 11
8.911713636159
 21
-3.11899218537
  0
SOLID
  8
1
 10
0.72895864014495
 20
-0.498454891344402
 11
1.9859557672062
 21
-1.3169646485005
 12
-3.4707759471681
 22
-9.69694549557535
 13
-3.4707759471681
 23
-9.69694549557535
  0
SOLID
  8
1
 10
-3.4707759471681
 20
-9.69694549557535
 11
-4.7277730742294
 21
-8.8784357384192
 12
0.72895864014495
 22
-0.498454891344402
 13
0.72895864014495
 23
-0.498454891344402
  0
SOLID
  8
1
 10
-7.4512668495287
 20
-7.10499793124755
 11
-0.747282171868801
 21
-11.470383302747
 12
-2.3843016861811
 22
-13.9843775568694
 13
-2.3843016861811
 23
-13.9843775568694
  0
SOLID
  8
1
 10
-2.3843016861811
 20
-13.9843775568694
 11
-9.088286363841
 21
-9.61899218537
 12
-7.4512668495287
 22
-7.10499793124755
 13
-7.4512668495287
 23
-7.10499793124755
  0
SOLID
  8
1
 10
2.7604369370907
 20
2.52096500596225
 11
4.00891959752925
 21
1.68952586412195
 12
1.2374557913948
 22
-2.4720830040067
 13
1.2374557913948
 23
-2.4720830040067
  0
SOLID
  8
1
 10
1.2374557913948
 20
-2.4720830040067
 11
-0.0110268690437015
 21
-1.64064386216635
 12
2.7604369370907
 22
2.52096500596225
 13
2.7604369370907
 23
2.52096500596225
  0
POLYLINE
  8
1
 66
1
  0
VERTEX
  8
1
 10
7.7711379858295
 20
23.11899218537
  0
VERTEX
  8
1
 10
-3.31471723870835
 20
6.4725567128555
  0
VERTEX
  8
1
 10
10.0024311393033
 20
-2.39612746677465
  0
VERTEX
  8
1
 10
21.088286363841
 20
14.25030800574
  0
VERTEX
  8
1
 10
7.7711379858295
 20
23.11899218537
  0
SEQEND
  8
1
  0
SOLID
  8
1
 10
1.11962485110675
 20
13.1311309018612
 11
14.4367732291183
 21
4.26244672223125
 12
12.7738949454378
 22
1.765481401354
 13
12.7738949454378
 23
1.765481401354
  0
SOLID
  8
1
 10
12.7738949454378
 20
1.765481401354
 11
-0.543253432573898
 21
10.6341655809842
 12
1.11962485110675
 22
13.1311309018612
 13
1.11962485110675
 23
13.1311309018612
  0
SOLID
  8
1
 10
5.4910794262125
 20
6.61554306208925
 11
6.73956208665125
 21
5.784103920249
 12
3.96809828051675
 22
1.6224950521203
 13
3.96809828051675
 23
1.6224950521203
  0
SOLID
  8
1
 10
3.96809828051675
 20
1.6224950521203
 11
2.71961562007815
 21
2.45393419396075
 12
5.4910794262125
 22
6.61554306208925
 13
5.4910794262125
 23
6.61554306208925
  0
POLYLINE
  8
1
 66
1
  0
VERTEX
  8
1
 10
2.5062393859594
 20
13.4091599142602
  0
VERTEX
  8
1
 10
15.2673297391732
 20
7.31370480433525
  0
VERTEX
  8
1
 10
4.723410430867
 20
16.738447008763
  0
VERTEX
  8
1
 10
17.484500784081
 20
10.642991898838
  0
VERTEX
  8
1
 10
6.9405814757745
 20
20.067734103266
  0
VERTEX
  8
1
 10
19.7016718289883
 20
13.972278993341
  0
SEQEND
  8
1
  0
CIRCLE
  8
CONNECTIONS
 10
-21.088286363841
 20
-13.11899218537
 40
0
  0
CIRCLE
  8
CONNECTIONS
 10
8.911713636159
 20
-13.11899218537
 40
0
  0
ENDBLK
  8
0
  0
ENDSEC
  0
SECTION
  2
ENTITIES
  0
INSERT
  8
1
  2
B217972_00995586
 10
21.088286363841
 20
23.11899218537
  0
ENDSEC
  0
EOF
