  0
SECTION
  2
HEADER
  9
$LIMMIN
 10
0
 20
0
  9
$LIMMAX
 10
52.5
 20
74.25
  9
$EXTMIN
 10
0
 20
38.1515558970403
  9
$EXTMAX
 10
0
 20
40.6448196210698
  0
ENDSEC
  0
SECTION
  2
TABLES
  0
TABLE
  2
LTYPE
 70
9
  0
LTYPE
  2
CONTINUOUS
 70
64
  3
Solid line
 72
65
 73
0
 40
0
  0
LTYPE
  2
DASHED
 70
64
  3
__ __ __ __ __ __ __ __ __
 72
65
 73
2
 40
0.75
 49
0.5
 49
-0.25
  0
LTYPE
  2
DOT
 70
64
  3
...........................
 72
65
 73
2
 40
0.25
 49
0
 49
-0.25
  0
LTYPE
  2
DASHDOT
 70
64
  3
__ . __ . __ . __ . __ . __ . 
 72
65
 73
4
 40
1
 49
0.5
 49
-0.25
 49
0
 49
-0.25
  0
ENDTAB
  0
TABLE
  2
LAYER
 70
10
  0
LAYER
  2
1
 70
0
 62
7
  6
CONTINUOUS
  0
LAYER
  2
CONNECTIONS
 70
0
 62
-7
  6
CONTINUOUS
  0
ENDTAB
  0
ENDSEC
  0
SECTION
  2
BLOCKS
  0
BLOCK
  8
0
  2
TRICON
 70
0
 10
0
 20
0
  0
POLYLINE
  8
1
 70
1
 66
1
 40
0.5
 41
0.5
  0
VERTEX
  8
1
 10
-0.25
 20
0
 42
1
  0
VERTEX
  8
1
 10
0.25
 20
0
 42
1
  0
SEQEND
  8
1
  0
ENDBLK
  8
0
  0
BLOCK
  8
0
  2
TRICONSMALL
 70
0
 10
0
 20
0
  0
POLYLINE
  8
1
 70
1
 66
1
 40
0.25
 41
0.25
  0
VERTEX
  8
1
 10
-0.125
 20
0
 42
1
  0
VERTEX
  8
1
 10
0.125
 20
0
 42
1
  0
SEQEND
  8
1
  0
ENDBLK
  8
0
  0
BLOCK
  8
0
  2
TRICONCIRCLE
 70
0
 10
0
 20
0
  0
CIRCLE
  8
1
 10
0
 20
0
 40
0.5
  0
ENDBLK
  8
0
  0
BLOCK
  8
0
  2
LCBP0
 70
0
 10
0
 20
0
  0
LINE
  8
1
 10
0
 20
-0.46875
 11
0
 21
0.46875
  0
ENDBLK
  8
0
  0
BLOCK
  8
0
  2
LCBP1
 70
0
 10
0
 20
0
  0
LINE
  8
1
 10
0
 20
-0.625
 11
0
 21
0.625
  0
ENDBLK
  8
0
  0
BLOCK
  8
0
  2
LCBP2
 70
0
 10
0
 20
0
  0
LINE
  8
1
 10
0
 20
-0.9375
 11
0
 21
0.9375
  0
ENDBLK
  8
0
  0
BLOCK
  8
0
  2
LCA1
 70
0
 10
0
 20
0
  0
SOLID
  8
1
 62
7 
 10
0
 20
0
 11
-1.4
 21
-0.275
 12
-1.4
 22
0.275
 13
-1.4
 23
0.275
  0
ENDBLK
  8
0
  0
BLOCK
  8
0
  2
LCA2
 70
0
 10
0
 20
0
  0
SOLID
  8
1
 62
7 
 10
0
 20
0
 11
-1.65
 21
-0.525
 12
-1.65
 22
0.525
 13
-1.65
 23
0.525
  0
ENDBLK
  8
0
  0
BLOCK
  8
0
  2
LCA3
 70
0
 10
0
 20
0
  0
SOLID
  8
1
 62
7 
 10
0
 20
0
 11
-2.15
 21
-1.15
 12
-2.15
 22
1.15
 13
-2.15
 23
1.15
  0
ENDBLK
  8
0
  0
BLOCK
  8
0
  2
LCA1R
 70
0
 10
0
 20
0
  0
SOLID
  8
1
 62
7 
 10
0
 20
0
 11
1.4
 21
-0.275
 12
1.4
 22
0.275
 13
1.4
 23
0.275
  0
ENDBLK
  8
0
  0
BLOCK
  8
0
  2
LCA2R
 70
0
 10
0
 20
0
  0
SOLID
  8
1
 62
7 
 10
0
 20
0
 11
1.65
 21
-0.525
 12
1.65
 22
0.525
 13
1.65
 23
0.525
  0
ENDBLK
  8
0
  0
BLOCK
  8
0
  2
LCA3R
 70
0
 10
0
 20
0
  0
SOLID
  8
1
 62
7 
 10
0
 20
0
 11
2.15
 21
-1.15
 12
2.15
 22
1.15
 13
2.15
 23
1.15
  0
ENDBLK
  8
0
  0
BLOCK
  8
0
  2
B217900_00995582
 70
0
 10
0
 20
0
  0
LINE
  8
1
 10
-19.0757779485201
 20
-0.322409810534912
 11
-4.07577794852015
 21
-10.3224098105349
  0
LINE
  8
1
 10
-19.0757779485201
 20
-0.322409810534912
 11
-19.0757779485201
 21
-20.3224098105349
  0
LINE
  8
1
 10
-19.0757779485201
 20
-20.3224098105349
 11
-4.07577794852015
 21
-10.3224098105349
  0
LINE
  8
1
 10
10.9242220514799
 20
-20.3224098105349
 11
-4.07577794852015
 21
-10.3224098105349
  0
LINE
  8
1
 10
10.9242220514799
 20
-0.322409810534912
 11
-4.07577794852015
 21
-10.3224098105349
  0
LINE
  8
1
 10
10.9242220514799
 20
-20.3224098105349
 11
10.9242220514799
 21
-0.322409810534912
  0
SOLID
  8
1
 10
2.7414670554658
 20
2.29812748349069
 11
3.99846418252705
 21
1.47961772633459
 12
-1.45826753184725
 22
-6.90036312074026
 13
-1.45826753184725
 23
-6.90036312074026
  0
SOLID
  8
1
 10
-1.45826753184725
 20
-6.90036312074026
 11
-2.71526465890855
 21
-6.08185336358411
 12
2.7414670554658
 22
2.29812748349069
 13
2.7414670554658
 23
2.29812748349069
  0
SOLID
  8
1
 10
-5.43875843420785
 20
-4.30841555641246
 11
1.26522624345205
 21
-8.67380092791191
 12
-0.371793270860249
 22
-11.1877951820343
 13
-0.371793270860249
 23
-11.1877951820343
  0
SOLID
  8
1
 10
-0.371793270860249
 20
-11.1877951820343
 11
-7.07577794852015
 21
-6.82240981053491
 12
-5.43875843420785
 22
-4.30841555641246
 13
-5.43875843420785
 23
-4.30841555641246
  0
POLYLINE
  8
1
 66
1
  0
VERTEX
  8
1
 10
6.62250334814885
 20
14.1795346274501
  0
VERTEX
  8
1
 10
13.7758726317371
 20
10.5563995357626
  0
VERTEX
  8
1
 10
7.92311594516485
 20
16.0375526231871
  0
VERTEX
  8
1
 10
15.0764852287531
 20
12.4144175314996
  0
VERTEX
  8
1
 10
9.22372854218085
 20
17.8955706189243
  0
VERTEX
  8
1
 10
16.3770978257691
 20
14.2724355272368
  0
SEQEND
  8
1
  0
SOLID
  8
1
 10
9.12567979288035
 20
11.4087726462711
 11
10.3545276736589
 21
10.5485791297261
 12
3.9171292137722
 22
1.35229561560254
 13
3.9171292137722
 23
1.35229561560254
  0
SOLID
  8
1
 10
3.9171292137722
 20
1.35229561560254
 11
2.68828133299365
 21
2.21248913214749
 12
9.12567979288035
 22
11.4087726462711
 13
9.12567979288035
 23
11.4087726462711
  0
LINE
  8
1
 10
0.520507539303464
 20
17.5418448869482
 11
19.0576084264085
 21
4.56587426597463
  0
LINE
  8
1
 10
16.277042106295
 20
20.3224098105349
 11
19.0576074488397
 21
4.56587286944787
  0
LINE
  8
1
 10
3.3192410074331
 20
1.77750048567931
 11
19.0757779485201
 21
4.55806582822406
  0
LINE
  8
1
 10
0.520505165207915
 20
17.5418444679902
 11
3.30107050775268
 21
1.78530752690312
  0
LINE
  8
1
 10
0.520505165207915
 20
17.5418444679902
 11
16.277042106295
 21
20.3224098105349
  0
CIRCLE
  8
CONNECTIONS
 10
-19.0757779485201
 20
-10.3224098105349
 40
0
  0
CIRCLE
  8
CONNECTIONS
 10
10.9242220514799
 20
-10.3224098105349
 40
0
  0
ENDBLK
  8
0
  0
ENDSEC
  0
SECTION
  2
ENTITIES
  0
INSERT
  8
1
  2
B217900_00995582
 10
19.0757779485201
 20
20.3224098105349
  0
ENDSEC
  0
EOF
