  0
SECTION
  2
HEADER
  9
$LIMMIN
 10
0
 20
0
  9
$LIMMAX
 10
52.5
 20
74.25
  9
$EXTMIN
 10
0
 20
67
  9
$EXTMAX
 10
0
 20
16
  0
ENDSEC
  0
SECTION
  2
TABLES
  0
TABLE
  2
LTYPE
 70
9
  0
LTYPE
  2
CONTINUOUS
 70
64
  3
Solid line
 72
65
 73
0
 40
0
  0
LTYPE
  2
DASHED
 70
64
  3
__ __ __ __ __ __ __ __ __
 72
65
 73
2
 40
0.75
 49
0.5
 49
-0.25
  0
LTYPE
  2
DOT
 70
64
  3
...........................
 72
65
 73
2
 40
0.25
 49
0
 49
-0.25
  0
LTYPE
  2
DASHDOT
 70
64
  3
__ . __ . __ . __ . __ . __ . 
 72
65
 73
4
 40
1
 49
0.5
 49
-0.25
 49
0
 49
-0.25
  0
ENDTAB
  0
TABLE
  2
LAYER
 70
10
  0
LAYER
  2
1
 70
0
 62
7
  6
CONTINUOUS
  0
LAYER
  2
CONNECTIONS
 70
0
 62
-7
  6
CONTINUOUS
  0
ENDTAB
  0
ENDSEC
  0
SECTION
  2
BLOCKS
  0
BLOCK
  8
0
  2
TRICON
 70
0
 10
0
 20
0
  0
POLYLINE
  8
1
 70
1
 66
1
 40
0.5
 41
0.5
  0
VERTEX
  8
1
 10
-0.25
 20
0
 42
1
  0
VERTEX
  8
1
 10
0.25
 20
0
 42
1
  0
SEQEND
  8
1
  0
ENDBLK
  8
0
  0
BLOCK
  8
0
  2
TRICONSMALL
 70
0
 10
0
 20
0
  0
POLYLINE
  8
1
 70
1
 66
1
 40
0.25
 41
0.25
  0
VERTEX
  8
1
 10
-0.125
 20
0
 42
1
  0
VERTEX
  8
1
 10
0.125
 20
0
 42
1
  0
SEQEND
  8
1
  0
ENDBLK
  8
0
  0
BLOCK
  8
0
  2
TRICONCIRCLE
 70
0
 10
0
 20
0
  0
CIRCLE
  8
1
 10
0
 20
0
 40
0.5
  0
ENDBLK
  8
0
  0
BLOCK
  8
0
  2
LCBP0
 70
0
 10
0
 20
0
  0
LINE
  8
1
 10
0
 20
-0.46875
 11
0
 21
0.46875
  0
ENDBLK
  8
0
  0
BLOCK
  8
0
  2
LCBP1
 70
0
 10
0
 20
0
  0
LINE
  8
1
 10
0
 20
-0.625
 11
0
 21
0.625
  0
ENDBLK
  8
0
  0
BLOCK
  8
0
  2
LCBP2
 70
0
 10
0
 20
0
  0
LINE
  8
1
 10
0
 20
-0.9375
 11
0
 21
0.9375
  0
ENDBLK
  8
0
  0
BLOCK
  8
0
  2
LCA1
 70
0
 10
0
 20
0
  0
SOLID
  8
1
 62
7 
 10
0
 20
0
 11
-1.4
 21
-0.275
 12
-1.4
 22
0.275
 13
-1.4
 23
0.275
  0
ENDBLK
  8
0
  0
BLOCK
  8
0
  2
LCA2
 70
0
 10
0
 20
0
  0
SOLID
  8
1
 62
7 
 10
0
 20
0
 11
-1.65
 21
-0.525
 12
-1.65
 22
0.525
 13
-1.65
 23
0.525
  0
ENDBLK
  8
0
  0
BLOCK
  8
0
  2
LCA3
 70
0
 10
0
 20
0
  0
SOLID
  8
1
 62
7 
 10
0
 20
0
 11
-2.15
 21
-1.15
 12
-2.15
 22
1.15
 13
-2.15
 23
1.15
  0
ENDBLK
  8
0
  0
BLOCK
  8
0
  2
LCA1R
 70
0
 10
0
 20
0
  0
SOLID
  8
1
 62
7 
 10
0
 20
0
 11
1.4
 21
-0.275
 12
1.4
 22
0.275
 13
1.4
 23
0.275
  0
ENDBLK
  8
0
  0
BLOCK
  8
0
  2
LCA2R
 70
0
 10
0
 20
0
  0
SOLID
  8
1
 62
7 
 10
0
 20
0
 11
1.65
 21
-0.525
 12
1.65
 22
0.525
 13
1.65
 23
0.525
  0
ENDBLK
  8
0
  0
BLOCK
  8
0
  2
LCA3R
 70
0
 10
0
 20
0
  0
SOLID
  8
1
 62
7 
 10
0
 20
0
 11
2.15
 21
-1.15
 12
2.15
 22
1.15
 13
2.15
 23
1.15
  0
ENDBLK
  8
0
  0
BLOCK
  8
0
  2
B121666_00995570
 70
0
 10
0
 20
0
  0
TEXT
  8
1
 40
2.475
 41
0.75
  1
3
  7
STANDARD
 73
2
 10
-7.81522102355957
 20
-7.8
 11
-7.81522102355957
 21
-7.8
  0
TEXT
  8
1
 40
2.475
 41
0.75
  1
1
  7
STANDARD
 72
2
 73
2
 10
-14.95
 20
-7.8
 11
-14.95
 21
-7.8
  0
TEXT
  8
1
 40
2.475
 41
0.75
  1
2
  7
STANDARD
 72
2
 73
2
 10
-15.05
 20
7.09999999999999
 11
-15.05
 21
7.09999999999999
  0
TEXT
  8
1
 40
2.475
 41
0.75
  1
2
  7
STANDARD
 72
2
 73
2
 10
20.95
 20
7.09999999999999
 11
20.95
 21
7.09999999999999
  0
TEXT
  8
1
 40
2.475
 41
0.75
  1
3
  7
STANDARD
 73
2
 10
28.1847789764404
 20
-7.8
 11
28.1847789764404
 21
-7.8
  0
TEXT
  8
1
 40
2.475
 41
0.75
  1
1
  7
STANDARD
 72
2
 73
2
 10
21.025997543335
 20
-7.8
 11
21.025997543335
 21
-7.8
  0
LINE
  8
1
 10
22.5
 20
8
 11
22.5
 21
4
  0
LINE
  8
1
 10
26.5
 20
-4
 11
26.5
 21
-8
  0
LINE
  8
1
 10
22.5
 20
-4
 11
22.5
 21
-8
  0
LINE
  8
1
 10
-13.5
 20
8
 11
-13.5
 21
4
  0
LINE
  8
1
 10
-9.5
 20
-4
 11
-9.5
 21
-8
  0
LINE
  8
1
 10
-13.5
 20
-4
 11
-13.5
 21
-8
  0
TEXT
  8
1
 40
2.475
 41
0.75
  1
12
  7
STANDARD
 72
2
 73
2
 10
8.34999999999999
 20
2.70006666666667
 11
8.34999999999999
 21
2.70006666666667
  0
TEXT
  8
1
 40
2.475
 41
0.75
  1
12
  7
STANDARD
 72
2
 73
2
 10
-27.65
 20
2.80006666666667
 11
-27.65
 21
2.80006666666667
  0
POLYLINE
  8
1
 66
1
  0
VERTEX
  8
1
 10
33.5
 20
-1.99993333333333
  0
VERTEX
  8
1
 10
33.0833333333333
 20
-3.99993333333333
  0
VERTEX
  8
1
 10
32.25
 20
6.66666666688798E-05
  0
VERTEX
  8
1
 10
31.4166666666668
 20
-3.99993333333333
  0
VERTEX
  8
1
 10
30.5833333333332
 20
6.66666666688798E-05
  0
VERTEX
  8
1
 10
29.75
 20
-3.99993333333333
  0
VERTEX
  8
1
 10
28.9166666666668
 20
6.66666666688798E-05
  0
VERTEX
  8
1
 10
28.5
 20
-1.99993333333333
  0
SEQEND
  8
1
  0
POLYLINE
  8
1
 66
1
  0
VERTEX
  8
1
 10
-2.5
 20
-1.99993333333333
  0
VERTEX
  8
1
 10
-2.91666666666672
 20
-3.99993333333333
  0
VERTEX
  8
1
 10
-3.75
 20
6.66666666688798E-05
  0
VERTEX
  8
1
 10
-4.58333333333325
 20
-3.99993333333333
  0
VERTEX
  8
1
 10
-5.41666666666675
 20
6.66666666688798E-05
  0
VERTEX
  8
1
 10
-6.25
 20
-3.99993333333333
  0
VERTEX
  8
1
 10
-7.08333333333325
 20
6.66666666688798E-05
  0
VERTEX
  8
1
 10
-7.5
 20
-1.99993333333333
  0
SEQEND
  8
1
  0
LINE
  8
1
 10
8.50000000000694
 20
-1.99993333333333
 11
12.5
 21
-1.99993333333333
  0
LINE
  8
1
 10
5.03591140703788
 20
-1.99992581498075
 11
2.5
 21
-1.99992581498075
  0
LINE
  8
1
 10
5.03591140703788
 20
7.41850192464237E-05
 11
5.03591140703788
 21
-3.99992581498075
  0
LINE
  8
1
 10
5.03591140703788
 20
7.41850192464237E-05
 11
8.50001302217564
 21
-1.99992581498075
  0
LINE
  8
1
 10
5.03591140703788
 20
-3.99992581498075
 11
8.50001302217564
 21
-1.99992581498075
  0
LINE
  8
1
 10
-27.4999999999931
 20
-1.99993333333333
 11
-23.5
 21
-1.99993333333333
  0
LINE
  8
1
 10
-30.9640885929621
 20
-1.99992581498075
 11
-33.5
 21
-1.99992581498075
  0
LINE
  8
1
 10
-30.9640885929621
 20
7.41850192464237E-05
 11
-30.9640885929621
 21
-3.99992581498075
  0
LINE
  8
1
 10
-30.9640885929621
 20
7.41850192464237E-05
 11
-27.4999869778244
 21
-1.99992581498075
  0
LINE
  8
1
 10
-30.9640885929621
 20
-3.99992581498075
 11
-27.4999869778244
 21
-1.99992581498075
  0
LINE
  8
1
 10
22.5
 20
-3.99993333333333
 11
22.5
 21
-1.99993333333333
  0
INSERT
  8
1
  2
LCBP1
 10
22.5
 20
-1.99993333333333
 50
90
  0
POLYLINE
  8
1
 66
1
  0
VERTEX
  8
1
 10
20.5
 20
4.00006666666667
  0
VERTEX
  8
1
 10
28.5
 20
4.00006666666667
  0
VERTEX
  8
1
 10
28.5
 20
-3.99993333333333
  0
VERTEX
  8
1
 10
20.5
 20
-3.99993333333333
  0
VERTEX
  8
1
 10
20.5
 20
4.00006666666667
  0
SEQEND
  8
1
  0
LINE
  8
1
 10
22.5
 20
4.00006666666667
 11
26.5
 21
-3.99993333333333
  0
INSERT
  8
1
  2
LCA1
 10
26.5
 20
-3.99993333333333
 50
-63.434948822922
  0
INSERT
  8
1
  2
LCA1R
 10
22.5
 20
4.00006666666667
 50
-63.434948822922
  0
LINE
  8
1
 10
-13.5
 20
-3.99993333333333
 11
-13.5
 21
-1.99993333333333
  0
INSERT
  8
1
  2
LCBP1
 10
-13.5
 20
-1.99993333333333
 50
90
  0
POLYLINE
  8
1
 66
1
  0
VERTEX
  8
1
 10
-15.5
 20
4.00006666666667
  0
VERTEX
  8
1
 10
-7.5
 20
4.00006666666667
  0
VERTEX
  8
1
 10
-7.5
 20
-3.99993333333333
  0
VERTEX
  8
1
 10
-15.5
 20
-3.99993333333333
  0
VERTEX
  8
1
 10
-15.5
 20
4.00006666666667
  0
SEQEND
  8
1
  0
LINE
  8
1
 10
-13.5
 20
4.00006666666667
 11
-9.5
 21
-3.99993333333333
  0
INSERT
  8
1
  2
LCA1
 10
-9.5
 20
-3.99993333333333
 50
-63.434948822922
  0
INSERT
  8
1
  2
LCA1R
 10
-13.5
 20
4.00006666666667
 50
-63.434948822922
  0
LINE
  8
1
 10
18.5
 20
-3.99993333333333
 11
18.5
 21
-1.99993333333333
  0
INSERT
  8
1
  2
LCBP1
 10
18.5
 20
-1.99993333333333
 50
90
  0
POLYLINE
  8
1
 66
1
  0
VERTEX
  8
1
 10
12.5
 20
4.00006666666667
  0
VERTEX
  8
1
 10
20.5
 20
4.00006666666667
  0
VERTEX
  8
1
 10
20.5
 20
-3.99993333333333
  0
VERTEX
  8
1
 10
12.5
 20
-3.99993333333333
  0
VERTEX
  8
1
 10
12.5
 20
4.00006666666667
  0
SEQEND
  8
1
  0
LINE
  8
1
 10
14.5
 20
-3.99993333333333
 11
14.5
 21
4.00006666666667
  0
INSERT
  8
1
  2
LCA1
 10
14.5
 20
4.00006666666667
 50
90
  0
INSERT
  8
1
  2
LCA1R
 10
14.5
 20
-3.99993333333333
 50
90
  0
LINE
  8
1
 10
-17.5
 20
-3.99993333333333
 11
-17.5
 21
-1.99993333333333
  0
INSERT
  8
1
  2
LCBP1
 10
-17.5
 20
-1.99993333333333
 50
90
  0
POLYLINE
  8
1
 66
1
  0
VERTEX
  8
1
 10
-23.5
 20
4.00006666666667
  0
VERTEX
  8
1
 10
-15.5
 20
4.00006666666667
  0
VERTEX
  8
1
 10
-15.5
 20
-3.99993333333333
  0
VERTEX
  8
1
 10
-23.5
 20
-3.99993333333333
  0
VERTEX
  8
1
 10
-23.5
 20
4.00006666666667
  0
SEQEND
  8
1
  0
LINE
  8
1
 10
-21.5
 20
-3.99993333333333
 11
-21.5
 21
4.00006666666667
  0
INSERT
  8
1
  2
LCA1
 10
-21.5
 20
4.00006666666667
 50
90
  0
INSERT
  8
1
  2
LCA1R
 10
-21.5
 20
-3.99993333333333
 50
90
  0
CIRCLE
  8
CONNECTIONS
 10
-13.5
 20
-8
 40
0
  0
CIRCLE
  8
CONNECTIONS
 10
-9.5
 20
-8
 40
0
  0
CIRCLE
  8
CONNECTIONS
 10
22.5
 20
-8
 40
0
  0
CIRCLE
  8
CONNECTIONS
 10
26.5
 20
-8
 40
0
  0
CIRCLE
  8
CONNECTIONS
 10
22.5
 20
8
 40
0
  0
CIRCLE
  8
CONNECTIONS
 10
-13.5
 20
8
 40
0
  0
CIRCLE
  8
CONNECTIONS
 10
2.5
 20
-1.99993333333333
 40
0
  0
CIRCLE
  8
CONNECTIONS
 10
-33.5
 20
-1.99993333333333
 40
0
  0
ENDBLK
  8
0
  0
ENDSEC
  0
SECTION
  2
ENTITIES
  0
INSERT
  8
1
  2
B121666_00995570
 10
33.5
 20
8
  0
ENDSEC
  0
EOF
