  0
SECTION
  2
HEADER
  9
$LIMMIN
 10
0
 20
0
  9
$LIMMAX
 10
52.5
 20
74.25
  9
$EXTMIN
 10
0
 20
31.9701174418132
  9
$EXTMAX
 10
0
 20
21.7252606550852
  0
ENDSEC
  0
SECTION
  2
TABLES
  0
TABLE
  2
LTYPE
 70
9
  0
LTYPE
  2
CONTINUOUS
 70
64
  3
Solid line
 72
65
 73
0
 40
0
  0
LTYPE
  2
DASHED
 70
64
  3
__ __ __ __ __ __ __ __ __
 72
65
 73
2
 40
0.75
 49
0.5
 49
-0.25
  0
LTYPE
  2
DOT
 70
64
  3
...........................
 72
65
 73
2
 40
0.25
 49
0
 49
-0.25
  0
LTYPE
  2
DASHDOT
 70
64
  3
__ . __ . __ . __ . __ . __ . 
 72
65
 73
4
 40
1
 49
0.5
 49
-0.25
 49
0
 49
-0.25
  0
ENDTAB
  0
TABLE
  2
LAYER
 70
10
  0
LAYER
  2
1
 70
0
 62
7
  6
CONTINUOUS
  0
LAYER
  2
CONNECTIONS
 70
0
 62
-7
  6
CONTINUOUS
  0
ENDTAB
  0
ENDSEC
  0
SECTION
  2
BLOCKS
  0
BLOCK
  8
0
  2
TRICON
 70
0
 10
0
 20
0
  0
POLYLINE
  8
1
 70
1
 66
1
 40
0.5
 41
0.5
  0
VERTEX
  8
1
 10
-0.25
 20
0
 42
1
  0
VERTEX
  8
1
 10
0.25
 20
0
 42
1
  0
SEQEND
  8
1
  0
ENDBLK
  8
0
  0
BLOCK
  8
0
  2
TRICONSMALL
 70
0
 10
0
 20
0
  0
POLYLINE
  8
1
 70
1
 66
1
 40
0.25
 41
0.25
  0
VERTEX
  8
1
 10
-0.125
 20
0
 42
1
  0
VERTEX
  8
1
 10
0.125
 20
0
 42
1
  0
SEQEND
  8
1
  0
ENDBLK
  8
0
  0
BLOCK
  8
0
  2
TRICONCIRCLE
 70
0
 10
0
 20
0
  0
CIRCLE
  8
1
 10
0
 20
0
 40
0.5
  0
ENDBLK
  8
0
  0
BLOCK
  8
0
  2
LCBP0
 70
0
 10
0
 20
0
  0
LINE
  8
1
 10
0
 20
-0.46875
 11
0
 21
0.46875
  0
ENDBLK
  8
0
  0
BLOCK
  8
0
  2
LCBP1
 70
0
 10
0
 20
0
  0
LINE
  8
1
 10
0
 20
-0.625
 11
0
 21
0.625
  0
ENDBLK
  8
0
  0
BLOCK
  8
0
  2
LCBP2
 70
0
 10
0
 20
0
  0
LINE
  8
1
 10
0
 20
-0.9375
 11
0
 21
0.9375
  0
ENDBLK
  8
0
  0
BLOCK
  8
0
  2
LCA1
 70
0
 10
0
 20
0
  0
SOLID
  8
1
 62
7 
 10
0
 20
0
 11
-1.4
 21
-0.275
 12
-1.4
 22
0.275
 13
-1.4
 23
0.275
  0
ENDBLK
  8
0
  0
BLOCK
  8
0
  2
LCA2
 70
0
 10
0
 20
0
  0
SOLID
  8
1
 62
7 
 10
0
 20
0
 11
-1.65
 21
-0.525
 12
-1.65
 22
0.525
 13
-1.65
 23
0.525
  0
ENDBLK
  8
0
  0
BLOCK
  8
0
  2
LCA3
 70
0
 10
0
 20
0
  0
SOLID
  8
1
 62
7 
 10
0
 20
0
 11
-2.15
 21
-1.15
 12
-2.15
 22
1.15
 13
-2.15
 23
1.15
  0
ENDBLK
  8
0
  0
BLOCK
  8
0
  2
LCA1R
 70
0
 10
0
 20
0
  0
SOLID
  8
1
 62
7 
 10
0
 20
0
 11
1.4
 21
-0.275
 12
1.4
 22
0.275
 13
1.4
 23
0.275
  0
ENDBLK
  8
0
  0
BLOCK
  8
0
  2
LCA2R
 70
0
 10
0
 20
0
  0
SOLID
  8
1
 62
7 
 10
0
 20
0
 11
1.65
 21
-0.525
 12
1.65
 22
0.525
 13
1.65
 23
0.525
  0
ENDBLK
  8
0
  0
BLOCK
  8
0
  2
LCA3R
 70
0
 10
0
 20
0
  0
SOLID
  8
1
 62
7 
 10
0
 20
0
 11
2.15
 21
-1.15
 12
2.15
 22
1.15
 13
2.15
 23
1.15
  0
ENDBLK
  8
0
  0
BLOCK
  8
0
  2
B2344_00995566
 70
0
 10
0
 20
0
  0
POLYLINE
  8
1
 66
1
  0
VERTEX
  8
1
 10
-10.0852959632874
 20
4.63736987113953
  0
VERTEX
  8
1
 10
1.41470403671265
 20
4.63736987113953
  0
VERTEX
  8
1
 10
1.41470403671265
 20
0.137369871139526
  0
VERTEX
  8
1
 10
-10.0852959632874
 20
0.137369871139526
  0
VERTEX
  8
1
 10
-10.0852959632874
 20
4.63736987113953
  0
SEQEND
  8
1
  0
POLYLINE
  8
1
 66
1
  0
VERTEX
  8
1
 10
-10.0852959632874
 20
-0.862630128860474
  0
VERTEX
  8
1
 10
1.41470403671265
 20
-0.862630128860474
  0
VERTEX
  8
1
 10
1.41470403671265
 20
-9.86263012886047
  0
VERTEX
  8
1
 10
-10.0852959632874
 20
-9.86263012886047
  0
VERTEX
  8
1
 10
-10.0852959632874
 20
-0.862630128860474
  0
SEQEND
  8
1
  0
LINE
  8
1
 10
-7.58531830116462
 20
9.13734753326226
 11
-12.5852959632874
 21
4.13736987113948
  0
POLYLINE
  8
1
 66
1
  0
VERTEX
  8
1
 10
-12.5852959632874
 20
9.13736987113953
  0
VERTEX
  8
1
 10
3.41470403671265
 20
9.13736987113953
  0
VERTEX
  8
1
 10
3.41470403671265
 20
-10.8626301288605
  0
VERTEX
  8
1
 10
-12.5852959632874
 20
-10.8626301288605
  0
VERTEX
  8
1
 10
-12.5852959632874
 20
9.13736987113953
  0
SEQEND
  8
1
  0
TEXT
  8
1
 40
1.12499992847443
 41
0.75
  1
I
  7
STANDARD
 72
1
 73
2
 10
-4.75241268475851
 20
-8.44091773033142
 11
-4.75241268475851
 21
-8.44091773033142
  0
TEXT
  8
1
 40
1.12499992847443
 41
0.75
  1
U
  7
STANDARD
 72
1
 73
2
 10
-4.75241268475852
 20
-6.44091773033144
 11
-4.75241268475852
 21
-6.44091773033144
  0
TEXT
  8
1
 40
1.125
 41
0.75
  1
NPN
  7
STANDARD
 72
1
 73
2
 10
-4.75241268475852
 20
-4.44091773033144
 11
-4.75241268475852
 21
-4.44091773033144
  0
TEXT
  8
1
 40
1.125
 41
0.75
  1
PNP
  7
STANDARD
 72
1
 73
2
 10
-4.75241268475851
 20
-2.44091773033141
 11
-4.75241268475851
 21
-2.44091773033141
  0
TEXT
  8
1
 40
1.12499992847443
 41
0.75
  1
NPN
  7
STANDARD
 73
2
 10
-5.9705837249756
 20
1.05908226966856
 11
-5.9705837249756
 21
1.05908226966856
  0
TEXT
  8
1
 40
1.12499992847443
 41
0.75
  1
PNP/IO-Link
  7
STANDARD
 73
2
 10
-5.96190314292909
 20
3.05908226966857
 11
-5.96190314292909
 21
3.05908226966857
  0
TEXT
  8
1
 40
1.8
 41
0.75
  1
3
  7
STANDARD
 10
3.81470403671264
 20
-6.01315064430237
  0
TEXT
  8
1
 40
1.8
 41
0.75
  1
2
  7
STANDARD
 10
3.81470403671264
 20
-2.01315064430237
  0
TEXT
  8
1
 40
1.8
 41
0.75
  1
4
  7
STANDARD
 10
3.81470403671264
 20
1.98684935569764
  0
TEXT
  8
1
 40
1.8
 41
0.75
  1
1
  7
STANDARD
 10
3.81470403671264
 20
5.98684935569765
  0
TEXT
  8
1
 40
1.8
 41
0.75
  1
+24V
  7
STANDARD
 10
8.29779523213704
 20
4.71210961341859
  0
TEXT
  8
1
 40
1.8
 41
0.75
  1
0V
  7
STANDARD
 10
8.21777130762736
 20
-7.26263012886047
  0
SOLID
  8
1
 10
6.41470403671264
 20
-2.61263012886047
 11
7.91470403671264
 21
-2.61263012886047
 12
6.41470403671264
 22
-3.11263012886047
 13
7.91470403671264
 23
-3.11263012886047
  0
SOLID
  8
1
 10
7.91470403671264
 20
-3.11263012886047
 11
6.41470403671264
 21
-3.11263012886047
 12
6.41470403671264
 22
-3.11263012886047
 13
6.41470403671264
 23
-2.61263012886047
  0
LINE
  8
1
 10
1.41470403671264
 20
-2.86263012886047
 11
6.41470403671264
 21
-2.86263012886047
  0
SOLID
  8
1
 10
6.41470403671264
 20
1.38736987113953
 11
7.91470403671264
 21
1.38736987113953
 12
6.41470403671264
 22
0.887369871139526
 13
7.91470403671264
 23
0.887369871139526
  0
SOLID
  8
1
 10
7.91470403671264
 20
0.887369871139526
 11
6.41470403671264
 21
0.887369871139526
 12
6.41470403671264
 22
0.887369871139526
 13
6.41470403671264
 23
1.38736987113953
  0
LINE
  8
1
 10
1.41470403671264
 20
1.13736987113953
 11
6.41470403671264
 21
1.13736987113953
  0
LINE
  8
1
 10
3.41470403671264
 20
5.13736987113953
 11
6.41470403671264
 21
5.13736987113953
  0
SOLID
  8
1
 10
6.41470403671264
 20
5.38736987113953
 11
7.91470403671264
 21
5.38736987113953
 12
6.41470403671264
 22
4.88736987113953
 13
7.91470403671264
 23
4.88736987113953
  0
SOLID
  8
1
 10
7.91470403671264
 20
4.88736987113953
 11
6.41470403671264
 21
4.88736987113953
 12
6.41470403671264
 22
4.88736987113953
 13
6.41470403671264
 23
5.38736987113953
  0
LINE
  8
1
 10
3.41470403671264
 20
-6.86263012886047
 11
6.41470403671264
 21
-6.86263012886047
  0
SOLID
  8
1
 10
6.41470403671264
 20
-6.61263012886047
 11
7.91470403671264
 21
-6.61263012886047
 12
6.41470403671264
 22
-7.11263012886047
 13
7.91470403671264
 23
-7.11263012886047
  0
SOLID
  8
1
 10
7.91470403671264
 20
-7.11263012886047
 11
6.41470403671264
 21
-7.11263012886047
 12
6.41470403671264
 22
-7.11263012886047
 13
6.41470403671264
 23
-6.61263012886047
  0
TEXT
  8
1
 40
1.8
 41
0.75
  1
q
  7
STANDARD
 10
-15.9850587209066
 20
8.31211024920146
  0
TEXT
  8
1
 40
1.8
 41
0.75
  1
T
  7
STANDARD
 73
3
 10
-15.8411986351013
 20
6.02070320447286
 11
-15.8411986351013
 21
6.02070320447286
  0
LINE
  8
1
 10
-12.5852959632874
 20
7.63736987113953
 11
-11.5852959632874
 21
7.13736987113953
  0
LINE
  8
1
 10
-11.5852959632874
 20
7.13736987113953
 11
-12.5852959632874
 21
6.63736987113953
  0
LINE
  8
1
 10
-12.5852959632874
 20
7.63736987113953
 11
-12.5852959632874
 21
6.63736987113953
  0
LINE
  8
1
 10
-15.5852959632874
 20
7.13736987113953
 11
-12.5852959632874
 21
7.13736987113953
  0
CIRCLE
  8
CONNECTIONS
 10
-15.5852959632874
 20
7.13736987113953
 40
0
  0
ENDBLK
  8
0
  0
ENDSEC
  0
SECTION
  2
ENTITIES
  0
INSERT
  8
1
  2
B2344_00995566
 10
15.9850587209066
 20
10.8626301288605
  0
ENDSEC
  0
EOF
