  0
SECTION
  2
HEADER
  9
$LIMMIN
 10
0
 20
0
  9
$LIMMAX
 10
52.5
 20
74.25
  9
$EXTMIN
 10
0
 20
64.1096179326375
  9
$EXTMAX
 10
0
 20
19.0150903741068
  0
ENDSEC
  0
SECTION
  2
TABLES
  0
TABLE
  2
LTYPE
 70
9
  0
LTYPE
  2
CONTINUOUS
 70
64
  3
Solid line
 72
65
 73
0
 40
0
  0
LTYPE
  2
DASHED
 70
64
  3
__ __ __ __ __ __ __ __ __
 72
65
 73
2
 40
0.75
 49
0.5
 49
-0.25
  0
LTYPE
  2
DOT
 70
64
  3
...........................
 72
65
 73
2
 40
0.25
 49
0
 49
-0.25
  0
LTYPE
  2
DASHDOT
 70
64
  3
__ . __ . __ . __ . __ . __ . 
 72
65
 73
4
 40
1
 49
0.5
 49
-0.25
 49
0
 49
-0.25
  0
ENDTAB
  0
TABLE
  2
LAYER
 70
10
  0
LAYER
  2
1
 70
0
 62
7
  6
CONTINUOUS
  0
LAYER
  2
CONNECTIONS
 70
0
 62
-7
  6
CONTINUOUS
  0
ENDTAB
  0
ENDSEC
  0
SECTION
  2
BLOCKS
  0
BLOCK
  8
0
  2
TRICON
 70
0
 10
0
 20
0
  0
POLYLINE
  8
1
 70
1
 66
1
 40
0.5
 41
0.5
  0
VERTEX
  8
1
 10
-0.25
 20
0
 42
1
  0
VERTEX
  8
1
 10
0.25
 20
0
 42
1
  0
SEQEND
  8
1
  0
ENDBLK
  8
0
  0
BLOCK
  8
0
  2
TRICONSMALL
 70
0
 10
0
 20
0
  0
POLYLINE
  8
1
 70
1
 66
1
 40
0.25
 41
0.25
  0
VERTEX
  8
1
 10
-0.125
 20
0
 42
1
  0
VERTEX
  8
1
 10
0.125
 20
0
 42
1
  0
SEQEND
  8
1
  0
ENDBLK
  8
0
  0
BLOCK
  8
0
  2
TRICONCIRCLE
 70
0
 10
0
 20
0
  0
CIRCLE
  8
1
 10
0
 20
0
 40
0.5
  0
ENDBLK
  8
0
  0
BLOCK
  8
0
  2
LCBP0
 70
0
 10
0
 20
0
  0
LINE
  8
1
 10
0
 20
-0.46875
 11
0
 21
0.46875
  0
ENDBLK
  8
0
  0
BLOCK
  8
0
  2
LCBP1
 70
0
 10
0
 20
0
  0
LINE
  8
1
 10
0
 20
-0.625
 11
0
 21
0.625
  0
ENDBLK
  8
0
  0
BLOCK
  8
0
  2
LCBP2
 70
0
 10
0
 20
0
  0
LINE
  8
1
 10
0
 20
-0.9375
 11
0
 21
0.9375
  0
ENDBLK
  8
0
  0
BLOCK
  8
0
  2
LCA1
 70
0
 10
0
 20
0
  0
SOLID
  8
1
 62
7 
 10
0
 20
0
 11
-1.4
 21
-0.275
 12
-1.4
 22
0.275
 13
-1.4
 23
0.275
  0
ENDBLK
  8
0
  0
BLOCK
  8
0
  2
LCA2
 70
0
 10
0
 20
0
  0
SOLID
  8
1
 62
7 
 10
0
 20
0
 11
-1.65
 21
-0.525
 12
-1.65
 22
0.525
 13
-1.65
 23
0.525
  0
ENDBLK
  8
0
  0
BLOCK
  8
0
  2
LCA3
 70
0
 10
0
 20
0
  0
SOLID
  8
1
 62
7 
 10
0
 20
0
 11
-2.15
 21
-1.15
 12
-2.15
 22
1.15
 13
-2.15
 23
1.15
  0
ENDBLK
  8
0
  0
BLOCK
  8
0
  2
LCA1R
 70
0
 10
0
 20
0
  0
SOLID
  8
1
 62
7 
 10
0
 20
0
 11
1.4
 21
-0.275
 12
1.4
 22
0.275
 13
1.4
 23
0.275
  0
ENDBLK
  8
0
  0
BLOCK
  8
0
  2
LCA2R
 70
0
 10
0
 20
0
  0
SOLID
  8
1
 62
7 
 10
0
 20
0
 11
1.65
 21
-0.525
 12
1.65
 22
0.525
 13
1.65
 23
0.525
  0
ENDBLK
  8
0
  0
BLOCK
  8
0
  2
LCA3R
 70
0
 10
0
 20
0
  0
SOLID
  8
1
 62
7 
 10
0
 20
0
 11
2.15
 21
-1.15
 12
2.15
 22
1.15
 13
2.15
 23
1.15
  0
ENDBLK
  8
0
  0
BLOCK
  8
0
  2
B188477_00995438
 70
0
 10
0
 20
0
  0
TEXT
  8
1
 40
2.475
 41
0.75
  1
14(12)
  7
STANDARD
 10
19.4128477096558
 20
2.1854896207876
  0
TEXT
  8
1
 40
2.475
 41
0.75
  1
14
  7
STANDARD
 72
2
 10
-25.7224659601847
 20
1.9854896207876
 11
-25.7224659601847
 21
1.9854896207876
  0
TEXT
  8
1
 40
2.475
 41
0.75
  1
(14)
  7
STANDARD
 72
2
 10
-26.1163972854614
 20
-7.52557872332862
 11
-26.1163972854614
 21
-7.52557872332862
  0
LINE
  8
1
 10
-26.0135482788086
 20
-3.46307935911149
 11
-26.0135482788086
 21
-7.46307935911149
  0
TEXT
  8
1
 40
2.475
 41
0.75
  1
1
  7
STANDARD
 72
2
 10
-2.08958810170493
 20
-10.2700451870534
 11
-2.08958810170493
 21
-10.2700451870534
  0
TEXT
  8
1
 40
2.475
 41
0.75
  1
5
  7
STANDARD
 72
2
 10
-6.88958810170493
 20
-10.2700451870534
 11
-6.88958810170493
 21
-10.2700451870534
  0
TEXT
  8
1
 40
2.475
 41
0.75
  1
3
  7
STANDARD
 10
1.91041189829507
 20
-10.2700451870534
  0
LINE
  8
1
 10
1.91041189829507
 20
-5.50754518705339
 11
1.91041189829507
 21
-9.50754518705339
  0
LINE
  8
1
 10
-2.08958810170493
 20
-5.50754518705339
 11
-2.08958810170493
 21
-9.50754518705339
  0
LINE
  8
1
 10
-6.08958810170493
 20
-5.50754518705339
 11
-6.08958810170493
 21
-9.50754518705339
  0
TEXT
  8
1
 40
2.475
 41
0.75
  1
4
  7
STANDARD
 72
2
 10
-6.27344985105543
 20
5.6966007318987
 11
-6.27344985105543
 21
5.6966007318987
  0
TEXT
  8
1
 40
2.475
 41
0.75
  1
2
  7
STANDARD
 72
2
 10
1.78993812708664
 20
5.6966007318987
 11
1.78993812708664
 21
5.6966007318987
  0
LINE
  8
1
 10
-6.07528353225582
 20
8.4591007318987
 11
-6.07528353225582
 21
4.4591007318987
  0
LINE
  8
1
 10
1.92471646774418
 20
8.4591007318987
 11
1.92471646774418
 21
4.4591007318987
  0
LINE
  8
1
 10
15.9451908747355
 20
8.49245481294661
 11
15.9451908747355
 21
4.49245481294661
  0
LINE
  8
1
 10
-20.0548091252645
 20
8.49245481294661
 11
-20.0548091252645
 21
4.49245481294661
  0
LINE
  8
1
 10
25.9451908747355
 20
-3.50754518705339
 11
23.9451908747355
 21
0.492454812946613
  0
POLYLINE
  8
1
 66
1
  0
VERTEX
  8
1
 10
27.9451908747355
 20
0.492454812946612
  0
VERTEX
  8
1
 10
21.9451908747355
 20
0.492454812946612
  0
VERTEX
  8
1
 10
21.9451908747355
 20
-3.50754518705339
  0
VERTEX
  8
1
 10
27.9451908747355
 20
-3.50754518705339
  0
VERTEX
  8
1
 10
27.9451908747355
 20
0.492454812946612
  0
SEQEND
  8
1
  0
LINE
  8
1
 10
-30.0548091252645
 20
-3.50754518705339
 11
-28.0548091252645
 21
0.492454812946613
  0
POLYLINE
  8
1
 66
1
  0
VERTEX
  8
1
 10
-32.0548091252645
 20
0.492454812946612
  0
VERTEX
  8
1
 10
-26.0548091252645
 20
0.492454812946612
  0
VERTEX
  8
1
 10
-26.0548091252645
 20
-3.50754518705339
  0
VERTEX
  8
1
 10
-32.0548091252645
 20
-3.50754518705339
  0
VERTEX
  8
1
 10
-32.0548091252645
 20
0.492454812946612
  0
SEQEND
  8
1
  0
LINE
  8
1
 10
20.0137701097082
 20
9.50754518705339
 11
20.0137701097082
 21
7.50754518705339
  0
POLYLINE
  8
1
 66
1
  0
VERTEX
  8
1
 10
22.0137701097082
 20
6.5075451870534
  0
VERTEX
  8
1
 10
19.7637701097082
 20
6.5075451870534
  0
VERTEX
  8
1
 10
19.0137701097082
 20
5.20850708137673
  0
VERTEX
  8
1
 10
18.2637701097082
 20
6.5075451870534
  0
VERTEX
  8
1
 10
16.0137701097082
 20
6.5075451870534
  0
SEQEND
  8
1
  0
POLYLINE
  8
1
 66
1
  0
VERTEX
  8
1
 10
-25.0548091252645
 20
6.49245481294661
  0
VERTEX
  8
1
 10
-24.6381424585978
 20
4.49245481294661
  0
VERTEX
  8
1
 10
-23.8048091252645
 20
8.49245481294661
  0
VERTEX
  8
1
 10
-22.9714757919312
 20
4.49245481294661
  0
VERTEX
  8
1
 10
-22.1381424585978
 20
8.49245481294661
  0
VERTEX
  8
1
 10
-21.3048091252645
 20
4.49245481294661
  0
VERTEX
  8
1
 10
-20.4714757919311
 20
8.49245481294661
  0
VERTEX
  8
1
 10
-20.0548091252645
 20
6.49245481294661
  0
SEQEND
  8
1
  0
LINE
  8
1
 10
-2.05480912526448
 20
-3.50754518705339
 11
-2.05480912526448
 21
-5.50754518705339
  0
LINE
  8
1
 10
-6.05480912526448
 20
-3.50754518705339
 11
-6.05480912526448
 21
-5.50754518705339
  0
LINE
  8
1
 10
1.94519087473552
 20
-3.50754518705339
 11
1.94519087473552
 21
-5.50754518705339
  0
POLYLINE
  8
1
  6
DOT
 66
1
  0
VERTEX
  8
1
 10
-26.0548091252645
 20
-3.50754518705339
  0
VERTEX
  8
1
 10
-24.0548091252645
 20
-5.50754518705339
  0
VERTEX
  8
1
 10
21.9451908747355
 20
-5.50754518705339
  0
VERTEX
  8
1
 10
21.9451908747355
 20
-3.50754518705339
  0
SEQEND
  8
1
  0
POLYLINE
  8
1
 66
1
  0
VERTEX
  8
1
 10
21.9178847629313
 20
0.491552597584988
  0
VERTEX
  8
1
 10
15.9178847629313
 20
0.491552597584988
  0
VERTEX
  8
1
 10
15.9178847629313
 20
-3.50844740241501
  0
VERTEX
  8
1
 10
21.9178847629313
 20
-3.50844740241501
  0
VERTEX
  8
1
 10
21.9178847629313
 20
0.491552597584988
  0
SEQEND
  8
1
  0
LINE
  8
1
 10
21.9178847629313
 20
0.491552597584988
 11
18.4537831477935
 21
-1.50844740241501
  0
LINE
  8
1
 10
21.9178847629313
 20
-3.50844740241501
 11
18.4537831477935
 21
-1.50844740241501
  0
POLYLINE
  8
1
 66
1
  0
VERTEX
  8
1
 10
-26.0548091252645
 20
0.492454812946612
  0
VERTEX
  8
1
 10
-20.0548091252645
 20
0.492454812946612
  0
VERTEX
  8
1
 10
-20.0548091252645
 20
-3.50754518705339
  0
VERTEX
  8
1
 10
-26.0548091252645
 20
-3.50754518705339
  0
VERTEX
  8
1
 10
-26.0548091252645
 20
0.492454812946612
  0
SEQEND
  8
1
  0
LINE
  8
1
 10
-26.0548091252645
 20
0.492454812946613
 11
-22.5907075101267
 21
-1.50754518705339
  0
LINE
  8
1
 10
-26.0548091252645
 20
-3.50754518705339
 11
-22.5907075101267
 21
-1.50754518705339
  0
LINE
  8
1
 10
5.94519087473552
 20
-3.50754518705339
 11
5.94519087473552
 21
-1.50754518705339
  0
INSERT
  8
1
  2
LCBP1
 10
5.94519087473552
 20
-1.50754518705339
 50
90
  0
POLYLINE
  8
1
 66
1
  0
VERTEX
  8
1
 10
3.94519087473552
 20
4.49245481294661
  0
VERTEX
  8
1
 10
15.9451908747355
 20
4.49245481294661
  0
VERTEX
  8
1
 10
15.9451908747355
 20
-3.50754518705339
  0
VERTEX
  8
1
 10
3.94519087473552
 20
-3.50754518705339
  0
VERTEX
  8
1
 10
3.94519087473552
 20
4.49245481294661
  0
SEQEND
  8
1
  0
LINE
  8
1
 10
5.94519087473552
 20
4.49245481294661
 11
9.94519087473552
 21
-3.50754518705339
  0
INSERT
  8
1
  2
LCA1
 10
9.94519087473552
 20
-3.50754518705339
 50
-63.434948822922
  0
INSERT
  8
1
  2
LCA1R
 10
5.94519087473552
 20
4.49245481294661
 50
-63.434948822922
  0
LINE
  8
1
 10
13.9451908747355
 20
-3.50754518705339
 11
13.9451908747355
 21
4.49245481294661
  0
INSERT
  8
1
  2
LCA1
 10
13.9451908747355
 20
4.49245481294661
 50
90
  0
INSERT
  8
1
  2
LCA1R
 10
13.9451908747355
 20
-3.50754518705339
 50
90
  0
LINE
  8
1
 10
-18.0548091252645
 20
-3.50754518705339
 11
-18.0548091252645
 21
-1.50754518705339
  0
INSERT
  8
1
  2
LCBP1
 10
-18.0548091252645
 20
-1.50754518705339
 50
90
  0
POLYLINE
  8
1
 66
1
  0
VERTEX
  8
1
 10
-20.0548091252645
 20
4.49245481294661
  0
VERTEX
  8
1
 10
-8.05480912526448
 20
4.49245481294661
  0
VERTEX
  8
1
 10
-8.05480912526448
 20
-3.50754518705339
  0
VERTEX
  8
1
 10
-20.0548091252645
 20
-3.50754518705339
  0
VERTEX
  8
1
 10
-20.0548091252645
 20
4.49245481294661
  0
SEQEND
  8
1
  0
LINE
  8
1
 10
-18.0548091252645
 20
4.49245481294661
 11
-14.0548091252645
 21
-3.50754518705339
  0
INSERT
  8
1
  2
LCA1
 10
-14.0548091252645
 20
-3.50754518705339
 50
-63.434948822922
  0
INSERT
  8
1
  2
LCA1R
 10
-18.0548091252645
 20
4.49245481294661
 50
-63.434948822922
  0
LINE
  8
1
 10
-10.0548091252645
 20
-3.50754518705339
 11
-10.0548091252645
 21
4.49245481294661
  0
INSERT
  8
1
  2
LCA1
 10
-10.0548091252645
 20
4.49245481294661
 50
90
  0
INSERT
  8
1
  2
LCA1R
 10
-10.0548091252645
 20
-3.50754518705339
 50
90
  0
LINE
  8
1
 10
1.94519087473552
 20
-3.50754518705339
 11
1.94519087473552
 21
-1.50754518705339
  0
INSERT
  8
1
  2
LCBP0
 10
1.94519087473552
 20
-1.50754518705339
 50
90
  0
POLYLINE
  8
1
 66
1
  0
VERTEX
  8
1
 10
-8.05480912526448
 20
4.49245481294661
  0
VERTEX
  8
1
 10
3.94519087473552
 20
4.49245481294661
  0
VERTEX
  8
1
 10
3.94519087473552
 20
-3.50754518705339
  0
VERTEX
  8
1
 10
-8.05480912526448
 20
-3.50754518705339
  0
VERTEX
  8
1
 10
-8.05480912526448
 20
4.49245481294661
  0
SEQEND
  8
1
  0
LINE
  8
1
 10
-6.05480912526448
 20
-3.50754518705339
 11
-6.05480912526448
 21
4.49245481294661
  0
INSERT
  8
1
  2
LCA1
 10
-6.05480912526448
 20
4.49245481294661
 50
90
  0
INSERT
  8
1
  2
LCA1R
 10
-6.05480912526448
 20
-3.50754518705339
 50
90
  0
LINE
  8
1
 10
-2.05480912526448
 20
-3.50754518705339
 11
1.94519087473552
 21
4.49245481294661
  0
INSERT
  8
1
  2
LCA1
 10
1.94519087473552
 20
4.49245481294661
 50
63.434948822922
  0
INSERT
  8
1
  2
LCA1R
 10
-2.05480912526448
 20
-3.50754518705339
 50
63.434948822922
  0
CIRCLE
  8
CONNECTIONS
 10
27.9451908747355
 20
-1.50754518705338
 40
0
  0
CIRCLE
  8
CONNECTIONS
 10
-32.0700573603312
 20
-1.50754518705339
 40
0
  0
CIRCLE
  8
CONNECTIONS
 10
-26.0135482788086
 20
-7.46307935911149
 40
0
  0
CIRCLE
  8
CONNECTIONS
 10
1.92471646774418
 20
8.4591007318987
 40
0
  0
CIRCLE
  8
CONNECTIONS
 10
-6.07528353225582
 20
8.4591007318987
 40
0
  0
CIRCLE
  8
CONNECTIONS
 10
-6.08958810170493
 20
-9.50754518705339
 40
0
  0
CIRCLE
  8
CONNECTIONS
 10
-2.08958810170493
 20
-9.50754518705339
 40
0
  0
CIRCLE
  8
CONNECTIONS
 10
1.91041189829507
 20
-9.50754518705339
 40
0
  0
ENDBLK
  8
0
  0
ENDSEC
  0
SECTION
  2
ENTITIES
  0
INSERT
  8
1
  2
B188477_00995438
 10
32.0548091252645
 20
9.50754518705339
  0
ENDSEC
  0
EOF
