  0
SECTION
  2
HEADER
  9
$LIMMIN
 10
0
 20
0
  9
$LIMMAX
 10
52.5
 20
74.25
  9
$EXTMIN
 10
0
 20
60
  9
$EXTMAX
 10
0
 20
18
  0
ENDSEC
  0
SECTION
  2
TABLES
  0
TABLE
  2
LTYPE
 70
9
  0
LTYPE
  2
CONTINUOUS
 70
64
  3
Solid line
 72
65
 73
0
 40
0
  0
LTYPE
  2
DASHED
 70
64
  3
__ __ __ __ __ __ __ __ __
 72
65
 73
2
 40
0.75
 49
0.5
 49
-0.25
  0
LTYPE
  2
DOT
 70
64
  3
...........................
 72
65
 73
2
 40
0.25
 49
0
 49
-0.25
  0
LTYPE
  2
DASHDOT
 70
64
  3
__ . __ . __ . __ . __ . __ . 
 72
65
 73
4
 40
1
 49
0.5
 49
-0.25
 49
0
 49
-0.25
  0
ENDTAB
  0
TABLE
  2
LAYER
 70
10
  0
LAYER
  2
1
 70
0
 62
7
  6
CONTINUOUS
  0
LAYER
  2
CONNECTIONS
 70
0
 62
-7
  6
CONTINUOUS
  0
ENDTAB
  0
ENDSEC
  0
SECTION
  2
BLOCKS
  0
BLOCK
  8
0
  2
TRICON
 70
0
 10
0
 20
0
  0
POLYLINE
  8
1
 70
1
 66
1
 40
0.5
 41
0.5
  0
VERTEX
  8
1
 10
-0.25
 20
0
 42
1
  0
VERTEX
  8
1
 10
0.25
 20
0
 42
1
  0
SEQEND
  8
1
  0
ENDBLK
  8
0
  0
BLOCK
  8
0
  2
TRICONSMALL
 70
0
 10
0
 20
0
  0
POLYLINE
  8
1
 70
1
 66
1
 40
0.25
 41
0.25
  0
VERTEX
  8
1
 10
-0.125
 20
0
 42
1
  0
VERTEX
  8
1
 10
0.125
 20
0
 42
1
  0
SEQEND
  8
1
  0
ENDBLK
  8
0
  0
BLOCK
  8
0
  2
TRICONCIRCLE
 70
0
 10
0
 20
0
  0
CIRCLE
  8
1
 10
0
 20
0
 40
0.5
  0
ENDBLK
  8
0
  0
BLOCK
  8
0
  2
LCBP0
 70
0
 10
0
 20
0
  0
LINE
  8
1
 10
0
 20
-0.46875
 11
0
 21
0.46875
  0
ENDBLK
  8
0
  0
BLOCK
  8
0
  2
LCBP1
 70
0
 10
0
 20
0
  0
LINE
  8
1
 10
0
 20
-0.625
 11
0
 21
0.625
  0
ENDBLK
  8
0
  0
BLOCK
  8
0
  2
LCBP2
 70
0
 10
0
 20
0
  0
LINE
  8
1
 10
0
 20
-0.9375
 11
0
 21
0.9375
  0
ENDBLK
  8
0
  0
BLOCK
  8
0
  2
LCA1
 70
0
 10
0
 20
0
  0
SOLID
  8
1
 62
7 
 10
0
 20
0
 11
-1.4
 21
-0.275
 12
-1.4
 22
0.275
 13
-1.4
 23
0.275
  0
ENDBLK
  8
0
  0
BLOCK
  8
0
  2
LCA2
 70
0
 10
0
 20
0
  0
SOLID
  8
1
 62
7 
 10
0
 20
0
 11
-1.65
 21
-0.525
 12
-1.65
 22
0.525
 13
-1.65
 23
0.525
  0
ENDBLK
  8
0
  0
BLOCK
  8
0
  2
LCA3
 70
0
 10
0
 20
0
  0
SOLID
  8
1
 62
7 
 10
0
 20
0
 11
-2.15
 21
-1.15
 12
-2.15
 22
1.15
 13
-2.15
 23
1.15
  0
ENDBLK
  8
0
  0
BLOCK
  8
0
  2
LCA1R
 70
0
 10
0
 20
0
  0
SOLID
  8
1
 62
7 
 10
0
 20
0
 11
1.4
 21
-0.275
 12
1.4
 22
0.275
 13
1.4
 23
0.275
  0
ENDBLK
  8
0
  0
BLOCK
  8
0
  2
LCA2R
 70
0
 10
0
 20
0
  0
SOLID
  8
1
 62
7 
 10
0
 20
0
 11
1.65
 21
-0.525
 12
1.65
 22
0.525
 13
1.65
 23
0.525
  0
ENDBLK
  8
0
  0
BLOCK
  8
0
  2
LCA3R
 70
0
 10
0
 20
0
  0
SOLID
  8
1
 62
7 
 10
0
 20
0
 11
2.15
 21
-1.15
 12
2.15
 22
1.15
 13
2.15
 23
1.15
  0
ENDBLK
  8
0
  0
BLOCK
  8
0
  2
B188415_00995436
 70
0
 10
0
 20
0
  0
TEXT
  8
1
 40
2.475
 41
0.75
  1
12
  7
STANDARD
 10
23.4676568349202
 20
1.69303480784098
  0
TEXT
  8
1
 40
2.475
 41
0.75
  1
14
  7
STANDARD
 72
2
 10
-23.6676568349202
 20
1.49303480784098
 11
-23.6676568349202
 21
1.49303480784098
  0
TEXT
  8
1
 40
2.475
 41
0.75
  1
(14)
  7
STANDARD
 72
2
 10
-24.0615881601969
 20
-7.01803353627523
 11
-24.0615881601969
 21
-7.01803353627523
  0
LINE
  8
1
 10
-23.9587391535441
 20
-2.95553417205811
 11
-23.9587391535441
 21
-6.95553417205811
  0
TEXT
  8
1
 40
2.475
 41
0.75
  1
1
  7
STANDARD
 72
2
 10
-0.0347789764404447
 20
-9.7625
 11
-0.0347789764404447
 21
-9.7625
  0
TEXT
  8
1
 40
2.475
 41
0.75
  1
5
  7
STANDARD
 72
2
 10
-4.83477897644044
 20
-9.7625
 11
-4.83477897644044
 21
-9.7625
  0
TEXT
  8
1
 40
2.475
 41
0.75
  1
3
  7
STANDARD
 10
3.96522102355955
 20
-9.7625
  0
LINE
  8
1
 10
3.96522102355955
 20
-5
 11
3.96522102355955
 21
-9
  0
LINE
  8
1
 10
-0.0347789764404448
 20
-5
 11
-0.0347789764404448
 21
-9
  0
LINE
  8
1
 10
-4.03477897644044
 20
-5
 11
-4.03477897644044
 21
-9
  0
TEXT
  8
1
 40
2.475
 41
0.75
  1
4
  7
STANDARD
 72
2
 10
-4.21864072579095
 20
6.20414591895209
 11
-4.21864072579095
 21
6.20414591895209
  0
TEXT
  8
1
 40
2.475
 41
0.75
  1
2
  7
STANDARD
 72
2
 10
3.84474725235113
 20
6.20414591895209
 11
3.84474725235113
 21
6.20414591895209
  0
LINE
  8
1
 10
-4.02047440699134
 20
8.96664591895209
 11
-4.02047440699134
 21
4.96664591895209
  0
LINE
  8
1
 10
3.97952559300866
 20
8.96664591895209
 11
3.97952559300866
 21
4.96664591895209
  0
LINE
  8
1
 10
18
 20
9
 11
18
 21
5
  0
LINE
  8
1
 10
-18
 20
9
 11
-18
 21
5
  0
LINE
  8
1
 10
28
 20
-3
 11
26
 21
1
  0
POLYLINE
  8
1
 66
1
  0
VERTEX
  8
1
 10
30
 20
1
  0
VERTEX
  8
1
 10
24
 20
1
  0
VERTEX
  8
1
 10
24
 20
-3
  0
VERTEX
  8
1
 10
30
 20
-3
  0
VERTEX
  8
1
 10
30
 20
1
  0
SEQEND
  8
1
  0
LINE
  8
1
 10
-28
 20
-3
 11
-26
 21
1
  0
POLYLINE
  8
1
 66
1
  0
VERTEX
  8
1
 10
-30
 20
1
  0
VERTEX
  8
1
 10
-24
 20
1
  0
VERTEX
  8
1
 10
-24
 20
-3
  0
VERTEX
  8
1
 10
-30
 20
-3
  0
VERTEX
  8
1
 10
-30
 20
1
  0
SEQEND
  8
1
  0
POLYLINE
  8
1
 66
1
  0
VERTEX
  8
1
 10
23
 20
7
  0
VERTEX
  8
1
 10
22.5833333333332
 20
5
  0
VERTEX
  8
1
 10
21.75
 20
9
  0
VERTEX
  8
1
 10
20.9166666666667
 20
5
  0
VERTEX
  8
1
 10
20.0833333333333
 20
9
  0
VERTEX
  8
1
 10
19.25
 20
5
  0
VERTEX
  8
1
 10
18.4166666666667
 20
9
  0
VERTEX
  8
1
 10
18
 20
7
  0
SEQEND
  8
1
  0
POLYLINE
  8
1
 66
1
  0
VERTEX
  8
1
 10
-23
 20
7
  0
VERTEX
  8
1
 10
-22.5833333333333
 20
5
  0
VERTEX
  8
1
 10
-21.75
 20
9
  0
VERTEX
  8
1
 10
-20.9166666666667
 20
5
  0
VERTEX
  8
1
 10
-20.0833333333333
 20
9
  0
VERTEX
  8
1
 10
-19.25
 20
5
  0
VERTEX
  8
1
 10
-18.4166666666667
 20
9
  0
VERTEX
  8
1
 10
-18
 20
7
  0
SEQEND
  8
1
  0
LINE
  8
1
 10
0
 20
-3
 11
0
 21
-5
  0
LINE
  8
1
 10
-4
 20
-3
 11
-4
 21
-5
  0
LINE
  8
1
 10
4
 20
-3
 11
4
 21
-5
  0
POLYLINE
  8
1
  6
DOT
 66
1
  0
VERTEX
  8
1
 10
-24
 20
-3
  0
VERTEX
  8
1
 10
-22
 20
-5
  0
VERTEX
  8
1
 10
24
 20
-5
  0
VERTEX
  8
1
 10
24
 20
-3
  0
SEQEND
  8
1
  0
POLYLINE
  8
1
 66
1
  0
VERTEX
  8
1
 10
23.9726938881958
 20
0.999097784638376
  0
VERTEX
  8
1
 10
17.9726938881958
 20
0.999097784638376
  0
VERTEX
  8
1
 10
17.9726938881958
 20
-3.00090221536163
  0
VERTEX
  8
1
 10
23.9726938881958
 20
-3.00090221536163
  0
VERTEX
  8
1
 10
23.9726938881958
 20
0.999097784638376
  0
SEQEND
  8
1
  0
LINE
  8
1
 10
23.9726938881958
 20
0.999097784638375
 11
20.508592273058
 21
-1.00090221536162
  0
LINE
  8
1
 10
23.9726938881958
 20
-3.00090221536162
 11
20.508592273058
 21
-1.00090221536162
  0
POLYLINE
  8
1
 66
1
  0
VERTEX
  8
1
 10
-24
 20
1
  0
VERTEX
  8
1
 10
-18
 20
1
  0
VERTEX
  8
1
 10
-18
 20
-3
  0
VERTEX
  8
1
 10
-24
 20
-3
  0
VERTEX
  8
1
 10
-24
 20
1
  0
SEQEND
  8
1
  0
LINE
  8
1
 10
-24
 20
1
 11
-20.5358983848622
 21
-1
  0
LINE
  8
1
 10
-24
 20
-3
 11
-20.5358983848622
 21
-1
  0
LINE
  8
1
 10
0
 20
-3
 11
4
 21
5
  0
INSERT
  8
1
  2
LCA1
 10
4
 20
5
 50
63.434948822922
  0
INSERT
  8
1
  2
LCA1R
 10
0
 20
-3
 50
63.434948822922
  0
LINE
  8
1
 10
-4
 20
5
 11
-4
 21
3
  0
INSERT
  8
1
  2
LCBP1
 10
-4
 20
3
 50
-90
  0
LINE
  8
1
 10
4
 20
-3
 11
4
 21
-1
  0
INSERT
  8
1
  2
LCBP1
 10
4
 20
-1
 50
90
  0
LINE
  8
1
 10
-4
 20
-3
 11
-4
 21
-1
  0
INSERT
  8
1
  2
LCBP1
 10
-4
 20
-1
 50
90
  0
POLYLINE
  8
1
 66
1
  0
VERTEX
  8
1
 10
-6
 20
5
  0
VERTEX
  8
1
 10
6
 20
5
  0
VERTEX
  8
1
 10
6
 20
-3
  0
VERTEX
  8
1
 10
-6
 20
-3
  0
VERTEX
  8
1
 10
-6
 20
5
  0
SEQEND
  8
1
  0
LINE
  8
1
 10
-16
 20
-3
 11
-16
 21
-1
  0
INSERT
  8
1
  2
LCBP1
 10
-16
 20
-1
 50
90
  0
POLYLINE
  8
1
 66
1
  0
VERTEX
  8
1
 10
-18
 20
5
  0
VERTEX
  8
1
 10
-6
 20
5
  0
VERTEX
  8
1
 10
-6
 20
-3
  0
VERTEX
  8
1
 10
-18
 20
-3
  0
VERTEX
  8
1
 10
-18
 20
5
  0
SEQEND
  8
1
  0
LINE
  8
1
 10
-16
 20
5
 11
-12
 21
-3
  0
INSERT
  8
1
  2
LCA1
 10
-12
 20
-3
 50
-63.434948822922
  0
INSERT
  8
1
  2
LCA1R
 10
-16
 20
5
 50
-63.434948822922
  0
LINE
  8
1
 10
-8
 20
-3
 11
-8
 21
5
  0
INSERT
  8
1
  2
LCA1
 10
-8
 20
5
 50
90
  0
INSERT
  8
1
  2
LCA1R
 10
-8
 20
-3
 50
90
  0
LINE
  8
1
 10
16
 20
-3
 11
16
 21
-1
  0
INSERT
  8
1
  2
LCBP0
 10
16
 20
-1
 50
90
  0
POLYLINE
  8
1
 66
1
  0
VERTEX
  8
1
 10
6
 20
5
  0
VERTEX
  8
1
 10
18
 20
5
  0
VERTEX
  8
1
 10
18
 20
-3
  0
VERTEX
  8
1
 10
6
 20
-3
  0
VERTEX
  8
1
 10
6
 20
5
  0
SEQEND
  8
1
  0
LINE
  8
1
 10
8
 20
-3
 11
8
 21
5
  0
INSERT
  8
1
  2
LCA1
 10
8
 20
5
 50
90
  0
INSERT
  8
1
  2
LCA1R
 10
8
 20
-3
 50
90
  0
LINE
  8
1
 10
12
 20
-3
 11
16
 21
5
  0
INSERT
  8
1
  2
LCA1
 10
16
 20
5
 50
63.434948822922
  0
INSERT
  8
1
  2
LCA1R
 10
12
 20
-3
 50
63.434948822922
  0
CIRCLE
  8
CONNECTIONS
 10
30
 20
-0.999999999999996
 40
0
  0
CIRCLE
  8
CONNECTIONS
 10
-30.0152482350667
 20
-1
 40
0
  0
CIRCLE
  8
CONNECTIONS
 10
-23.9587391535441
 20
-6.95553417205811
 40
0
  0
CIRCLE
  8
CONNECTIONS
 10
3.97952559300866
 20
8.96664591895209
 40
0
  0
CIRCLE
  8
CONNECTIONS
 10
-4.02047440699134
 20
8.96664591895209
 40
0
  0
CIRCLE
  8
CONNECTIONS
 10
-4.03477897644044
 20
-9
 40
0
  0
CIRCLE
  8
CONNECTIONS
 10
-0.0347789764404448
 20
-9
 40
0
  0
CIRCLE
  8
CONNECTIONS
 10
3.96522102355955
 20
-9
 40
0
  0
ENDBLK
  8
0
  0
ENDSEC
  0
SECTION
  2
ENTITIES
  0
INSERT
  8
1
  2
B188415_00995436
 10
30
 20
9
  0
ENDSEC
  0
EOF
