  0
SECTION
  2
HEADER
  9
$LIMMIN
 10
0
 20
0
  9
$LIMMAX
 10
52.5
 20
74.25
  9
$EXTMIN
 10
0
 20
118
  9
$EXTMAX
 10
0
 20
28
  0
ENDSEC
  0
SECTION
  2
TABLES
  0
TABLE
  2
LTYPE
 70
9
  0
LTYPE
  2
CONTINUOUS
 70
64
  3
Solid line
 72
65
 73
0
 40
0
  0
LTYPE
  2
DASHED
 70
64
  3
__ __ __ __ __ __ __ __ __
 72
65
 73
2
 40
0.75
 49
0.5
 49
-0.25
  0
LTYPE
  2
DOT
 70
64
  3
...........................
 72
65
 73
2
 40
0.25
 49
0
 49
-0.25
  0
LTYPE
  2
DASHDOT
 70
64
  3
__ . __ . __ . __ . __ . __ . 
 72
65
 73
4
 40
1
 49
0.5
 49
-0.25
 49
0
 49
-0.25
  0
ENDTAB
  0
TABLE
  2
LAYER
 70
10
  0
LAYER
  2
1
 70
0
 62
7
  6
CONTINUOUS
  0
LAYER
  2
CONNECTIONS
 70
0
 62
-7
  6
CONTINUOUS
  0
ENDTAB
  0
ENDSEC
  0
SECTION
  2
BLOCKS
  0
BLOCK
  8
0
  2
TRICON
 70
0
 10
0
 20
0
  0
POLYLINE
  8
1
 70
1
 66
1
 40
0.5
 41
0.5
  0
VERTEX
  8
1
 10
-0.25
 20
0
 42
1
  0
VERTEX
  8
1
 10
0.25
 20
0
 42
1
  0
SEQEND
  8
1
  0
ENDBLK
  8
0
  0
BLOCK
  8
0
  2
TRICONSMALL
 70
0
 10
0
 20
0
  0
POLYLINE
  8
1
 70
1
 66
1
 40
0.25
 41
0.25
  0
VERTEX
  8
1
 10
-0.125
 20
0
 42
1
  0
VERTEX
  8
1
 10
0.125
 20
0
 42
1
  0
SEQEND
  8
1
  0
ENDBLK
  8
0
  0
BLOCK
  8
0
  2
TRICONCIRCLE
 70
0
 10
0
 20
0
  0
CIRCLE
  8
1
 10
0
 20
0
 40
0.5
  0
ENDBLK
  8
0
  0
BLOCK
  8
0
  2
LCBP0
 70
0
 10
0
 20
0
  0
LINE
  8
1
 10
0
 20
-0.46875
 11
0
 21
0.46875
  0
ENDBLK
  8
0
  0
BLOCK
  8
0
  2
LCBP1
 70
0
 10
0
 20
0
  0
LINE
  8
1
 10
0
 20
-0.625
 11
0
 21
0.625
  0
ENDBLK
  8
0
  0
BLOCK
  8
0
  2
LCBP2
 70
0
 10
0
 20
0
  0
LINE
  8
1
 10
0
 20
-0.9375
 11
0
 21
0.9375
  0
ENDBLK
  8
0
  0
BLOCK
  8
0
  2
LCA1
 70
0
 10
0
 20
0
  0
SOLID
  8
1
 62
7 
 10
0
 20
0
 11
-1.4
 21
-0.275
 12
-1.4
 22
0.275
 13
-1.4
 23
0.275
  0
ENDBLK
  8
0
  0
BLOCK
  8
0
  2
LCA2
 70
0
 10
0
 20
0
  0
SOLID
  8
1
 62
7 
 10
0
 20
0
 11
-1.65
 21
-0.525
 12
-1.65
 22
0.525
 13
-1.65
 23
0.525
  0
ENDBLK
  8
0
  0
BLOCK
  8
0
  2
LCA3
 70
0
 10
0
 20
0
  0
SOLID
  8
1
 62
7 
 10
0
 20
0
 11
-2.15
 21
-1.15
 12
-2.15
 22
1.15
 13
-2.15
 23
1.15
  0
ENDBLK
  8
0
  0
BLOCK
  8
0
  2
LCA1R
 70
0
 10
0
 20
0
  0
SOLID
  8
1
 62
7 
 10
0
 20
0
 11
1.4
 21
-0.275
 12
1.4
 22
0.275
 13
1.4
 23
0.275
  0
ENDBLK
  8
0
  0
BLOCK
  8
0
  2
LCA2R
 70
0
 10
0
 20
0
  0
SOLID
  8
1
 62
7 
 10
0
 20
0
 11
1.65
 21
-0.525
 12
1.65
 22
0.525
 13
1.65
 23
0.525
  0
ENDBLK
  8
0
  0
BLOCK
  8
0
  2
LCA3R
 70
0
 10
0
 20
0
  0
SOLID
  8
1
 62
7 
 10
0
 20
0
 11
2.15
 21
-1.15
 12
2.15
 22
1.15
 13
2.15
 23
1.15
  0
ENDBLK
  8
0
  0
BLOCK
  8
0
  2
B124914_00995422
 70
0
 10
0
 20
0
  0
POLYLINE
  8
1
 66
1
  0
VERTEX
  8
1
 10
-55
 20
14
  0
VERTEX
  8
1
 10
55
 20
14
  0
VERTEX
  8
1
 10
55
 20
-10
  0
VERTEX
  8
1
 10
-55
 20
-10
  0
VERTEX
  8
1
 10
-55
 20
14
  0
SEQEND
  8
1
  0
LINE
  8
1
 10
51
 20
10
 11
51
 21
-10
  0
LINE
  8
1
 10
41
 20
-2
 11
41
 21
-10
  0
LINE
  8
1
 10
15
 20
10
 11
15
 21
-10
  0
LINE
  8
1
 10
5
 20
-2
 11
5
 21
-10
  0
LINE
  8
1
 10
-21
 20
10
 11
-21
 21
-10
  0
LINE
  8
1
 10
-31
 20
-2
 11
-31
 21
-10
  0
LINE
  8
1
 10
-55
 20
-6
 11
55
 21
-6
  0
POLYLINE
  8
1
 70
1
 66
1
 40
0.6
 41
0.6
  0
VERTEX
  8
1
 10
36.7
 20
-5.98111412493423
 42
1
  0
VERTEX
  8
1
 10
37.3
 20
-5.98111412493423
 42
1
  0
SEQEND
  8
1
  0
LINE
  8
1
 10
37
 20
6.01888587506577
 11
37
 21
10.0377717501315
  0
LINE
  8
1
 10
37
 20
-1.98111412493423
 11
37
 21
-5.96222824986845
  0
LINE
  8
1
 10
37
 20
10.0377717501315
 11
51
 21
10.0377717501315
  0
POLYLINE
  8
1
 70
1
 66
1
 40
0.6
 41
0.6
  0
VERTEX
  8
1
 10
0.7
 20
-6
 42
1
  0
VERTEX
  8
1
 10
1.3
 20
-6
 42
1
  0
SEQEND
  8
1
  0
POLYLINE
  8
1
 70
1
 66
1
 40
0.6
 41
0.6
  0
VERTEX
  8
1
 10
-35.3
 20
-6
 42
1
  0
VERTEX
  8
1
 10
-34.7
 20
-6
 42
1
  0
SEQEND
  8
1
  0
LINE
  8
1
 10
1
 20
10.0188858750658
 11
15
 21
10.0188858750658
  0
LINE
  8
1
 10
1
 20
6
 11
1
 21
10.0188858750658
  0
LINE
  8
1
 10
1
 20
-2
 11
1
 21
-5.98111412493423
  0
LINE
  8
1
 10
-35
 20
10
 11
-21
 21
10
  0
LINE
  8
1
 10
-35
 20
5.98111412493423
 11
-35
 21
10
  0
LINE
  8
1
 10
-35
 20
-2.01888587506577
 11
-35
 21
-6
  0
TEXT
  8
1
 40
2.475
 41
0.75
  1
1
  7
STANDARD
 73
2
 10
56.6347789764404
 20
-9
 11
56.6347789764404
 21
-9
  0
TEXT
  8
1
 40
2.475
 41
0.75
  1
23
  7
STANDARD
 10
51.9966747306713
 20
-14.7436141249342
  0
TEXT
  8
1
 40
2.475
 41
0.75
  1
33
  7
STANDARD
 10
41.9966747306713
 20
-14.7436141249342
  0
TEXT
  8
1
 40
2.475
 41
0.75
  1
22
  7
STANDARD
 10
15.9966747306713
 20
-14.7625
  0
TEXT
  8
1
 40
2.475
 41
0.75
  1
32
  7
STANDARD
 10
5.99667473067132
 20
-14.7625
  0
TEXT
  8
1
 40
2.475
 41
0.75
  1
21
  7
STANDARD
 10
-20.0033252693287
 20
-14.7625
  0
TEXT
  8
1
 40
2.475
 41
0.75
  1
31
  7
STANDARD
 10
-30.0033252693287
 20
-14.7625
  0
TEXT
  8
1
 40
2.475
 41
0.75
  1
1
  7
STANDARD
 73
3
 10
-59
 20
-6.61875
 11
-59
 21
-6.61875
  0
LINE
  8
1
 10
55
 20
-6
 11
59
 21
-6
  0
LINE
  8
1
 10
-59
 20
-6
 11
-55
 21
-6
  0
LINE
  8
1
 10
51
 20
-10
 11
51
 21
-14
  0
LINE
  8
1
 10
41
 20
-10
 11
41
 21
-14
  0
LINE
  8
1
 10
15
 20
-10
 11
15
 21
-14
  0
LINE
  8
1
 10
5
 20
-10
 11
5
 21
-14
  0
LINE
  8
1
 10
-21
 20
-10
 11
-21
 21
-14
  0
LINE
  8
1
 10
-31
 20
-10
 11
-31
 21
-14
  0
LINE
  8
1
 10
23
 20
-2
 11
25
 21
2
  0
POLYLINE
  8
1
 66
1
  0
VERTEX
  8
1
 10
21
 20
2
  0
VERTEX
  8
1
 10
27
 20
2
  0
VERTEX
  8
1
 10
27
 20
-2
  0
VERTEX
  8
1
 10
21
 20
-2
  0
VERTEX
  8
1
 10
21
 20
2
  0
SEQEND
  8
1
  0
LINE
  8
1
 10
-13
 20
-2
 11
-11
 21
2
  0
POLYLINE
  8
1
 66
1
  0
VERTEX
  8
1
 10
-15
 20
2
  0
VERTEX
  8
1
 10
-9
 20
2
  0
VERTEX
  8
1
 10
-9
 20
-2
  0
VERTEX
  8
1
 10
-15
 20
-2
  0
VERTEX
  8
1
 10
-15
 20
2
  0
SEQEND
  8
1
  0
LINE
  8
1
 10
-49
 20
-2
 11
-47
 21
2
  0
POLYLINE
  8
1
 66
1
  0
VERTEX
  8
1
 10
-51
 20
2
  0
VERTEX
  8
1
 10
-45
 20
2
  0
VERTEX
  8
1
 10
-45
 20
-2
  0
VERTEX
  8
1
 10
-51
 20
-2
  0
VERTEX
  8
1
 10
-51
 20
2
  0
SEQEND
  8
1
  0
POLYLINE
  8
1
 66
1
  0
VERTEX
  8
1
 10
48
 20
0
  0
VERTEX
  8
1
 10
47.5833333333333
 20
-2
  0
VERTEX
  8
1
 10
46.75
 20
2
  0
VERTEX
  8
1
 10
45.9166666666667
 20
-2
  0
VERTEX
  8
1
 10
45.0833333333332
 20
2
  0
VERTEX
  8
1
 10
44.25
 20
-2
  0
VERTEX
  8
1
 10
43.4166666666668
 20
2
  0
VERTEX
  8
1
 10
43
 20
0
  0
SEQEND
  8
1
  0
POLYLINE
  8
1
 66
1
  0
VERTEX
  8
1
 10
12
 20
0
  0
VERTEX
  8
1
 10
11.5833333333333
 20
-2
  0
VERTEX
  8
1
 10
10.75
 20
2
  0
VERTEX
  8
1
 10
9.91666666666675
 20
-2
  0
VERTEX
  8
1
 10
9.08333333333325
 20
2
  0
VERTEX
  8
1
 10
8.25
 20
-2
  0
VERTEX
  8
1
 10
7.41666666666675
 20
2
  0
VERTEX
  8
1
 10
7
 20
0
  0
SEQEND
  8
1
  0
POLYLINE
  8
1
 66
1
  0
VERTEX
  8
1
 10
-24
 20
0
  0
VERTEX
  8
1
 10
-24.4166666666667
 20
-2
  0
VERTEX
  8
1
 10
-25.25
 20
2
  0
VERTEX
  8
1
 10
-26.0833333333332
 20
-2
  0
VERTEX
  8
1
 10
-26.9166666666668
 20
2
  0
VERTEX
  8
1
 10
-27.75
 20
-2
  0
VERTEX
  8
1
 10
-28.5833333333332
 20
2
  0
VERTEX
  8
1
 10
-29
 20
0
  0
SEQEND
  8
1
  0
LINE
  8
1
 10
21
 20
2.5
 11
21
 21
5.5
  0
LINE
  8
1
 10
27
 20
3
 11
21
 21
3
  0
LINE
  8
1
 10
21
 20
5
 11
27
 21
5
  0
LINE
  8
1
 10
-15
 20
2.5
 11
-15
 21
5.5
  0
LINE
  8
1
 10
-9
 20
3
 11
-15
 21
3
  0
LINE
  8
1
 10
-15
 20
5
 11
-9
 21
5
  0
LINE
  8
1
 10
-51
 20
2.5
 11
-51
 21
5.5
  0
LINE
  8
1
 10
-45
 20
3
 11
-51
 21
3
  0
LINE
  8
1
 10
-51
 20
5
 11
-45
 21
5
  0
LINE
  8
1
 10
37
 20
-2
 11
37
 21
0
  0
INSERT
  8
1
  2
LCBP1
 10
37
 20
0
 50
90
  0
POLYLINE
  8
1
 66
1
  0
VERTEX
  8
1
 10
35
 20
6
  0
VERTEX
  8
1
 10
43
 20
6
  0
VERTEX
  8
1
 10
43
 20
-2
  0
VERTEX
  8
1
 10
35
 20
-2
  0
VERTEX
  8
1
 10
35
 20
6
  0
SEQEND
  8
1
  0
LINE
  8
1
 10
37
 20
6
 11
41
 21
-2
  0
INSERT
  8
1
  2
LCA1
 10
41
 20
-2
 50
-63.434948822922
  0
LINE
  8
1
 10
1
 20
-2
 11
1
 21
0
  0
INSERT
  8
1
  2
LCBP1
 10
1
 20
0
 50
90
  0
POLYLINE
  8
1
 66
1
  0
VERTEX
  8
1
 10
-1
 20
6
  0
VERTEX
  8
1
 10
7
 20
6
  0
VERTEX
  8
1
 10
7
 20
-2
  0
VERTEX
  8
1
 10
-1
 20
-2
  0
VERTEX
  8
1
 10
-1
 20
6
  0
SEQEND
  8
1
  0
LINE
  8
1
 10
1
 20
6
 11
5
 21
-2
  0
INSERT
  8
1
  2
LCA1
 10
5
 20
-2
 50
-63.434948822922
  0
LINE
  8
1
 10
-35
 20
-2
 11
-35
 21
0
  0
INSERT
  8
1
  2
LCBP1
 10
-35
 20
0
 50
90
  0
POLYLINE
  8
1
 66
1
  0
VERTEX
  8
1
 10
-37
 20
6
  0
VERTEX
  8
1
 10
-29
 20
6
  0
VERTEX
  8
1
 10
-29
 20
-2
  0
VERTEX
  8
1
 10
-37
 20
-2
  0
VERTEX
  8
1
 10
-37
 20
6
  0
SEQEND
  8
1
  0
LINE
  8
1
 10
-35
 20
6
 11
-31
 21
-2
  0
INSERT
  8
1
  2
LCA1
 10
-31
 20
-2
 50
-63.434948822922
  0
POLYLINE
  8
1
 66
1
  0
VERTEX
  8
1
 10
27
 20
6
  0
VERTEX
  8
1
 10
35
 20
6
  0
VERTEX
  8
1
 10
35
 20
-2
  0
VERTEX
  8
1
 10
27
 20
-2
  0
VERTEX
  8
1
 10
27
 20
6
  0
SEQEND
  8
1
  0
LINE
  8
1
 10
33
 20
-2
 11
33
 21
0
  0
INSERT
  8
1
  2
LCBP1
 10
33
 20
0
 50
90
  0
LINE
  8
1
 10
29
 20
-2
 11
29
 21
6
  0
INSERT
  8
1
  2
LCA1
 10
29
 20
6
 50
90
  0
POLYLINE
  8
1
 66
1
  0
VERTEX
  8
1
 10
-9
 20
6
  0
VERTEX
  8
1
 10
-1
 20
6
  0
VERTEX
  8
1
 10
-1
 20
-2
  0
VERTEX
  8
1
 10
-9
 20
-2
  0
VERTEX
  8
1
 10
-9
 20
6
  0
SEQEND
  8
1
  0
LINE
  8
1
 10
-3
 20
-2
 11
-3
 21
0
  0
INSERT
  8
1
  2
LCBP1
 10
-3
 20
0
 50
90
  0
LINE
  8
1
 10
-7
 20
-2
 11
-7
 21
6
  0
INSERT
  8
1
  2
LCA1
 10
-7
 20
6
 50
90
  0
POLYLINE
  8
1
 66
1
  0
VERTEX
  8
1
 10
-45
 20
6
  0
VERTEX
  8
1
 10
-37
 20
6
  0
VERTEX
  8
1
 10
-37
 20
-2
  0
VERTEX
  8
1
 10
-45
 20
-2
  0
VERTEX
  8
1
 10
-45
 20
6
  0
SEQEND
  8
1
  0
LINE
  8
1
 10
-39
 20
-2
 11
-39
 21
0
  0
INSERT
  8
1
  2
LCBP1
 10
-39
 20
0
 50
90
  0
LINE
  8
1
 10
-43
 20
-2
 11
-43
 21
6
  0
INSERT
  8
1
  2
LCA1
 10
-43
 20
6
 50
90
  0
CIRCLE
  8
CONNECTIONS
 10
-59
 20
-6
 40
0
  0
CIRCLE
  8
CONNECTIONS
 10
-31
 20
-14
 40
0
  0
CIRCLE
  8
CONNECTIONS
 10
-21
 20
-14
 40
0
  0
CIRCLE
  8
CONNECTIONS
 10
5
 20
-14
 40
0
  0
CIRCLE
  8
CONNECTIONS
 10
15
 20
-13.9811141249342
 40
0
  0
CIRCLE
  8
CONNECTIONS
 10
41
 20
-13.9811141249342
 40
0
  0
CIRCLE
  8
CONNECTIONS
 10
51
 20
-13.9622282498685
 40
0
  0
CIRCLE
  8
CONNECTIONS
 10
59
 20
-6
 40
0
  0
CIRCLE
  8
CONNECTIONS
 10
21
 20
0
 40
0
  0
CIRCLE
  8
CONNECTIONS
 10
-15
 20
0
 40
0
  0
CIRCLE
  8
CONNECTIONS
 10
-51
 20
0
 40
0
  0
CIRCLE
  8
CONNECTIONS
 10
27
 20
4
 40
0
  0
CIRCLE
  8
CONNECTIONS
 10
-9
 20
4
 40
0
  0
CIRCLE
  8
CONNECTIONS
 10
-45
 20
4
 40
0
  0
ENDBLK
  8
0
  0
ENDSEC
  0
SECTION
  2
ENTITIES
  0
INSERT
  8
1
  2
B124914_00995422
 10
59
 20
14
  0
ENDSEC
  0
EOF
