  0
SECTION
  2
HEADER
  9
$LIMMIN
 10
0
 20
0
  9
$LIMMAX
 10
52.5
 20
74.25
  9
$EXTMIN
 10
0
 20
82
  9
$EXTMAX
 10
0
 20
28
  0
ENDSEC
  0
SECTION
  2
TABLES
  0
TABLE
  2
LTYPE
 70
9
  0
LTYPE
  2
CONTINUOUS
 70
64
  3
Solid line
 72
65
 73
0
 40
0
  0
LTYPE
  2
DASHED
 70
64
  3
__ __ __ __ __ __ __ __ __
 72
65
 73
2
 40
0.75
 49
0.5
 49
-0.25
  0
LTYPE
  2
DOT
 70
64
  3
...........................
 72
65
 73
2
 40
0.25
 49
0
 49
-0.25
  0
LTYPE
  2
DASHDOT
 70
64
  3
__ . __ . __ . __ . __ . __ . 
 72
65
 73
4
 40
1
 49
0.5
 49
-0.25
 49
0
 49
-0.25
  0
ENDTAB
  0
TABLE
  2
LAYER
 70
10
  0
LAYER
  2
1
 70
0
 62
7
  6
CONTINUOUS
  0
LAYER
  2
CONNECTIONS
 70
0
 62
-7
  6
CONTINUOUS
  0
ENDTAB
  0
ENDSEC
  0
SECTION
  2
BLOCKS
  0
BLOCK
  8
0
  2
TRICON
 70
0
 10
0
 20
0
  0
POLYLINE
  8
1
 70
1
 66
1
 40
0.5
 41
0.5
  0
VERTEX
  8
1
 10
-0.25
 20
0
 42
1
  0
VERTEX
  8
1
 10
0.25
 20
0
 42
1
  0
SEQEND
  8
1
  0
ENDBLK
  8
0
  0
BLOCK
  8
0
  2
TRICONSMALL
 70
0
 10
0
 20
0
  0
POLYLINE
  8
1
 70
1
 66
1
 40
0.25
 41
0.25
  0
VERTEX
  8
1
 10
-0.125
 20
0
 42
1
  0
VERTEX
  8
1
 10
0.125
 20
0
 42
1
  0
SEQEND
  8
1
  0
ENDBLK
  8
0
  0
BLOCK
  8
0
  2
TRICONCIRCLE
 70
0
 10
0
 20
0
  0
CIRCLE
  8
1
 10
0
 20
0
 40
0.5
  0
ENDBLK
  8
0
  0
BLOCK
  8
0
  2
LCBP0
 70
0
 10
0
 20
0
  0
LINE
  8
1
 10
0
 20
-0.46875
 11
0
 21
0.46875
  0
ENDBLK
  8
0
  0
BLOCK
  8
0
  2
LCBP1
 70
0
 10
0
 20
0
  0
LINE
  8
1
 10
0
 20
-0.625
 11
0
 21
0.625
  0
ENDBLK
  8
0
  0
BLOCK
  8
0
  2
LCBP2
 70
0
 10
0
 20
0
  0
LINE
  8
1
 10
0
 20
-0.9375
 11
0
 21
0.9375
  0
ENDBLK
  8
0
  0
BLOCK
  8
0
  2
LCA1
 70
0
 10
0
 20
0
  0
SOLID
  8
1
 62
7 
 10
0
 20
0
 11
-1.4
 21
-0.275
 12
-1.4
 22
0.275
 13
-1.4
 23
0.275
  0
ENDBLK
  8
0
  0
BLOCK
  8
0
  2
LCA2
 70
0
 10
0
 20
0
  0
SOLID
  8
1
 62
7 
 10
0
 20
0
 11
-1.65
 21
-0.525
 12
-1.65
 22
0.525
 13
-1.65
 23
0.525
  0
ENDBLK
  8
0
  0
BLOCK
  8
0
  2
LCA3
 70
0
 10
0
 20
0
  0
SOLID
  8
1
 62
7 
 10
0
 20
0
 11
-2.15
 21
-1.15
 12
-2.15
 22
1.15
 13
-2.15
 23
1.15
  0
ENDBLK
  8
0
  0
BLOCK
  8
0
  2
LCA1R
 70
0
 10
0
 20
0
  0
SOLID
  8
1
 62
7 
 10
0
 20
0
 11
1.4
 21
-0.275
 12
1.4
 22
0.275
 13
1.4
 23
0.275
  0
ENDBLK
  8
0
  0
BLOCK
  8
0
  2
LCA2R
 70
0
 10
0
 20
0
  0
SOLID
  8
1
 62
7 
 10
0
 20
0
 11
1.65
 21
-0.525
 12
1.65
 22
0.525
 13
1.65
 23
0.525
  0
ENDBLK
  8
0
  0
BLOCK
  8
0
  2
LCA3R
 70
0
 10
0
 20
0
  0
SOLID
  8
1
 62
7 
 10
0
 20
0
 11
2.15
 21
-1.15
 12
2.15
 22
1.15
 13
2.15
 23
1.15
  0
ENDBLK
  8
0
  0
BLOCK
  8
0
  2
B106674_00995421
 70
0
 10
0
 20
0
  0
POLYLINE
  8
1
 66
1
  0
VERTEX
  8
1
 10
-37
 20
14
  0
VERTEX
  8
1
 10
37
 20
14
  0
VERTEX
  8
1
 10
37
 20
-10
  0
VERTEX
  8
1
 10
-37
 20
-10
  0
VERTEX
  8
1
 10
-37
 20
14
  0
SEQEND
  8
1
  0
POLYLINE
  8
1
 66
1
  0
VERTEX
  8
1
 10
19
 20
6
  0
VERTEX
  8
1
 10
19
 20
10
  0
VERTEX
  8
1
 10
33
 20
10
  0
VERTEX
  8
1
 10
33
 20
-10
  0
SEQEND
  8
1
  0
LINE
  8
1
 10
23
 20
-2
 11
23
 21
-10
  0
POLYLINE
  8
1
 66
1
  0
VERTEX
  8
1
 10
-17
 20
6
  0
VERTEX
  8
1
 10
-17
 20
10
  0
VERTEX
  8
1
 10
-3
 20
10
  0
VERTEX
  8
1
 10
-3
 20
-10
  0
SEQEND
  8
1
  0
LINE
  8
1
 10
-13
 20
-2
 11
-13
 21
-10
  0
LINE
  8
1
 10
-37
 20
-6
 11
37
 21
-6
  0
POLYLINE
  8
1
 70
1
 66
1
 40
0.6
 41
0.6
  0
VERTEX
  8
1
 10
18.7
 20
-6
 42
1
  0
VERTEX
  8
1
 10
19.3
 20
-6
 42
1
  0
SEQEND
  8
1
  0
POLYLINE
  8
1
 70
1
 66
1
 40
0.6
 41
0.6
  0
VERTEX
  8
1
 10
-17.3
 20
-6
 42
1
  0
VERTEX
  8
1
 10
-16.7
 20
-6
 42
1
  0
SEQEND
  8
1
  0
LINE
  8
1
 10
19
 20
-2
 11
19
 21
-5.98111412493423
  0
LINE
  8
1
 10
-17
 20
-2.01888587506577
 11
-17
 21
-6
  0
TEXT
  8
1
 40
2.475
 41
0.75
  1
22
  7
STANDARD
 10
33.9966747306713
 20
-14.7625
  0
TEXT
  8
1
 40
2.475
 41
0.75
  1
32
  7
STANDARD
 10
23.9966747306713
 20
-14.7625
  0
TEXT
  8
1
 40
2.475
 41
0.75
  1
21
  7
STANDARD
 10
-2.00332526932868
 20
-14.7625
  0
TEXT
  8
1
 40
2.475
 41
0.75
  1
31
  7
STANDARD
 10
-12.0033252693287
 20
-14.7625
  0
TEXT
  8
1
 40
2.475
 41
0.75
  1
1
  7
STANDARD
 73
3
 10
37
 20
-6.61875
 11
37
 21
-6.61875
  0
TEXT
  8
1
 40
2.475
 41
0.75
  1
1
  7
STANDARD
 73
3
 10
-41
 20
-6.61875
 11
-41
 21
-6.61875
  0
LINE
  8
1
 10
33
 20
-10
 11
33
 21
-14
  0
LINE
  8
1
 10
23
 20
-10
 11
23
 21
-14
  0
LINE
  8
1
 10
-3
 20
-10
 11
-3
 21
-14
  0
LINE
  8
1
 10
-13
 20
-10
 11
-13
 21
-14
  0
LINE
  8
1
 10
41
 20
-6
 11
37
 21
-6
  0
LINE
  8
1
 10
-41
 20
-6
 11
-37
 21
-6
  0
LINE
  8
1
 10
5
 20
-2
 11
7
 21
2
  0
POLYLINE
  8
1
 66
1
  0
VERTEX
  8
1
 10
3
 20
2
  0
VERTEX
  8
1
 10
9
 20
2
  0
VERTEX
  8
1
 10
9
 20
-2
  0
VERTEX
  8
1
 10
3
 20
-2
  0
VERTEX
  8
1
 10
3
 20
2
  0
SEQEND
  8
1
  0
LINE
  8
1
 10
-31
 20
-2
 11
-29
 21
2
  0
POLYLINE
  8
1
 66
1
  0
VERTEX
  8
1
 10
-33
 20
2
  0
VERTEX
  8
1
 10
-27
 20
2
  0
VERTEX
  8
1
 10
-27
 20
-2
  0
VERTEX
  8
1
 10
-33
 20
-2
  0
VERTEX
  8
1
 10
-33
 20
2
  0
SEQEND
  8
1
  0
POLYLINE
  8
1
 66
1
  0
VERTEX
  8
1
 10
30
 20
0
  0
VERTEX
  8
1
 10
29.5833333333333
 20
-2
  0
VERTEX
  8
1
 10
28.75
 20
2
  0
VERTEX
  8
1
 10
27.9166666666668
 20
-2
  0
VERTEX
  8
1
 10
27.0833333333332
 20
2
  0
VERTEX
  8
1
 10
26.25
 20
-2
  0
VERTEX
  8
1
 10
25.4166666666668
 20
2
  0
VERTEX
  8
1
 10
25
 20
0
  0
SEQEND
  8
1
  0
POLYLINE
  8
1
 66
1
  0
VERTEX
  8
1
 10
-6
 20
0
  0
VERTEX
  8
1
 10
-6.41666666666673
 20
-2
  0
VERTEX
  8
1
 10
-7.25
 20
2
  0
VERTEX
  8
1
 10
-8.08333333333325
 20
-2
  0
VERTEX
  8
1
 10
-8.91666666666675
 20
2
  0
VERTEX
  8
1
 10
-9.75
 20
-2
  0
VERTEX
  8
1
 10
-10.5833333333332
 20
2
  0
VERTEX
  8
1
 10
-11
 20
0
  0
SEQEND
  8
1
  0
LINE
  8
1
 10
3
 20
2.5
 11
3
 21
5.5
  0
LINE
  8
1
 10
9
 20
3
 11
3
 21
3
  0
LINE
  8
1
 10
3
 20
5
 11
9
 21
5
  0
LINE
  8
1
 10
-33
 20
2.5
 11
-33
 21
5.5
  0
LINE
  8
1
 10
-27
 20
3
 11
-33
 21
3
  0
LINE
  8
1
 10
-33
 20
5
 11
-27
 21
5
  0
LINE
  8
1
 10
19
 20
-2
 11
19
 21
0
  0
INSERT
  8
1
  2
LCBP1
 10
19
 20
0
 50
90
  0
POLYLINE
  8
1
 66
1
  0
VERTEX
  8
1
 10
17
 20
6
  0
VERTEX
  8
1
 10
25
 20
6
  0
VERTEX
  8
1
 10
25
 20
-2
  0
VERTEX
  8
1
 10
17
 20
-2
  0
VERTEX
  8
1
 10
17
 20
6
  0
SEQEND
  8
1
  0
LINE
  8
1
 10
19
 20
6
 11
23
 21
-2
  0
INSERT
  8
1
  2
LCA1
 10
23
 20
-2
 50
-63.434948822922
  0
LINE
  8
1
 10
-17
 20
-2
 11
-17
 21
0
  0
INSERT
  8
1
  2
LCBP1
 10
-17
 20
0
 50
90
  0
POLYLINE
  8
1
 66
1
  0
VERTEX
  8
1
 10
-19
 20
6
  0
VERTEX
  8
1
 10
-11
 20
6
  0
VERTEX
  8
1
 10
-11
 20
-2
  0
VERTEX
  8
1
 10
-19
 20
-2
  0
VERTEX
  8
1
 10
-19
 20
6
  0
SEQEND
  8
1
  0
LINE
  8
1
 10
-17
 20
6
 11
-13
 21
-2
  0
INSERT
  8
1
  2
LCA1
 10
-13
 20
-2
 50
-63.434948822922
  0
POLYLINE
  8
1
 66
1
  0
VERTEX
  8
1
 10
9
 20
6
  0
VERTEX
  8
1
 10
17
 20
6
  0
VERTEX
  8
1
 10
17
 20
-2
  0
VERTEX
  8
1
 10
9
 20
-2
  0
VERTEX
  8
1
 10
9
 20
6
  0
SEQEND
  8
1
  0
LINE
  8
1
 10
15
 20
-2
 11
15
 21
0
  0
INSERT
  8
1
  2
LCBP1
 10
15
 20
0
 50
90
  0
LINE
  8
1
 10
11
 20
-2
 11
11
 21
6
  0
INSERT
  8
1
  2
LCA1
 10
11
 20
6
 50
90
  0
POLYLINE
  8
1
 66
1
  0
VERTEX
  8
1
 10
-27
 20
6
  0
VERTEX
  8
1
 10
-19
 20
6
  0
VERTEX
  8
1
 10
-19
 20
-2
  0
VERTEX
  8
1
 10
-27
 20
-2
  0
VERTEX
  8
1
 10
-27
 20
6
  0
SEQEND
  8
1
  0
LINE
  8
1
 10
-21
 20
-2
 11
-21
 21
0
  0
INSERT
  8
1
  2
LCBP1
 10
-21
 20
0
 50
90
  0
LINE
  8
1
 10
-25
 20
-2
 11
-25
 21
6
  0
INSERT
  8
1
  2
LCA1
 10
-25
 20
6
 50
90
  0
CIRCLE
  8
CONNECTIONS
 10
-41
 20
-6
 40
0
  0
CIRCLE
  8
CONNECTIONS
 10
41
 20
-6
 40
0
  0
CIRCLE
  8
CONNECTIONS
 10
-13
 20
-14
 40
0
  0
CIRCLE
  8
CONNECTIONS
 10
-3
 20
-14
 40
0
  0
CIRCLE
  8
CONNECTIONS
 10
23
 20
-14
 40
0
  0
CIRCLE
  8
CONNECTIONS
 10
33
 20
-13.9811141249342
 40
0
  0
CIRCLE
  8
CONNECTIONS
 10
3
 20
0
 40
0
  0
CIRCLE
  8
CONNECTIONS
 10
-33
 20
0
 40
0
  0
CIRCLE
  8
CONNECTIONS
 10
9
 20
4
 40
0
  0
CIRCLE
  8
CONNECTIONS
 10
-27
 20
4
 40
0
  0
ENDBLK
  8
0
  0
ENDSEC
  0
SECTION
  2
ENTITIES
  0
INSERT
  8
1
  2
B106674_00995421
 10
41
 20
14
  0
ENDSEC
  0
EOF
