  0
SECTION
  2
HEADER
  9
$LIMMIN
 10
0
 20
0
  9
$LIMMAX
 10
52.5
 20
74.25
  9
$EXTMIN
 10
0
 20
68
  9
$EXTMAX
 10
0
 20
48
  0
ENDSEC
  0
SECTION
  2
TABLES
  0
TABLE
  2
LTYPE
 70
9
  0
LTYPE
  2
CONTINUOUS
 70
64
  3
Solid line
 72
65
 73
0
 40
0
  0
LTYPE
  2
DASHED
 70
64
  3
__ __ __ __ __ __ __ __ __
 72
65
 73
2
 40
0.75
 49
0.5
 49
-0.25
  0
LTYPE
  2
DOT
 70
64
  3
...........................
 72
65
 73
2
 40
0.25
 49
0
 49
-0.25
  0
LTYPE
  2
DASHDOT
 70
64
  3
__ . __ . __ . __ . __ . __ . 
 72
65
 73
4
 40
1
 49
0.5
 49
-0.25
 49
0
 49
-0.25
  0
ENDTAB
  0
TABLE
  2
LAYER
 70
10
  0
LAYER
  2
1
 70
0
 62
7
  6
CONTINUOUS
  0
LAYER
  2
CONNECTIONS
 70
0
 62
-7
  6
CONTINUOUS
  0
ENDTAB
  0
ENDSEC
  0
SECTION
  2
BLOCKS
  0
BLOCK
  8
0
  2
TRICON
 70
0
 10
0
 20
0
  0
POLYLINE
  8
1
 70
1
 66
1
 40
0.5
 41
0.5
  0
VERTEX
  8
1
 10
-0.25
 20
0
 42
1
  0
VERTEX
  8
1
 10
0.25
 20
0
 42
1
  0
SEQEND
  8
1
  0
ENDBLK
  8
0
  0
BLOCK
  8
0
  2
TRICONSMALL
 70
0
 10
0
 20
0
  0
POLYLINE
  8
1
 70
1
 66
1
 40
0.25
 41
0.25
  0
VERTEX
  8
1
 10
-0.125
 20
0
 42
1
  0
VERTEX
  8
1
 10
0.125
 20
0
 42
1
  0
SEQEND
  8
1
  0
ENDBLK
  8
0
  0
BLOCK
  8
0
  2
TRICONCIRCLE
 70
0
 10
0
 20
0
  0
CIRCLE
  8
1
 10
0
 20
0
 40
0.5
  0
ENDBLK
  8
0
  0
BLOCK
  8
0
  2
LCBP0
 70
0
 10
0
 20
0
  0
LINE
  8
1
 10
0
 20
-0.46875
 11
0
 21
0.46875
  0
ENDBLK
  8
0
  0
BLOCK
  8
0
  2
LCBP1
 70
0
 10
0
 20
0
  0
LINE
  8
1
 10
0
 20
-0.625
 11
0
 21
0.625
  0
ENDBLK
  8
0
  0
BLOCK
  8
0
  2
LCBP2
 70
0
 10
0
 20
0
  0
LINE
  8
1
 10
0
 20
-0.9375
 11
0
 21
0.9375
  0
ENDBLK
  8
0
  0
BLOCK
  8
0
  2
LCA1
 70
0
 10
0
 20
0
  0
SOLID
  8
1
 62
7 
 10
0
 20
0
 11
-1.4
 21
-0.275
 12
-1.4
 22
0.275
 13
-1.4
 23
0.275
  0
ENDBLK
  8
0
  0
BLOCK
  8
0
  2
LCA2
 70
0
 10
0
 20
0
  0
SOLID
  8
1
 62
7 
 10
0
 20
0
 11
-1.65
 21
-0.525
 12
-1.65
 22
0.525
 13
-1.65
 23
0.525
  0
ENDBLK
  8
0
  0
BLOCK
  8
0
  2
LCA3
 70
0
 10
0
 20
0
  0
SOLID
  8
1
 62
7 
 10
0
 20
0
 11
-2.15
 21
-1.15
 12
-2.15
 22
1.15
 13
-2.15
 23
1.15
  0
ENDBLK
  8
0
  0
BLOCK
  8
0
  2
LCA1R
 70
0
 10
0
 20
0
  0
SOLID
  8
1
 62
7 
 10
0
 20
0
 11
1.4
 21
-0.275
 12
1.4
 22
0.275
 13
1.4
 23
0.275
  0
ENDBLK
  8
0
  0
BLOCK
  8
0
  2
LCA2R
 70
0
 10
0
 20
0
  0
SOLID
  8
1
 62
7 
 10
0
 20
0
 11
1.65
 21
-0.525
 12
1.65
 22
0.525
 13
1.65
 23
0.525
  0
ENDBLK
  8
0
  0
BLOCK
  8
0
  2
LCA3R
 70
0
 10
0
 20
0
  0
SOLID
  8
1
 62
7 
 10
0
 20
0
 11
2.15
 21
-1.15
 12
2.15
 22
1.15
 13
2.15
 23
1.15
  0
ENDBLK
  8
0
  0
BLOCK
  8
0
  2
B12346_00995417
 70
0
 10
0
 20
0
  0
POLYLINE
  8
1
 66
1
  0
VERTEX
  8
1
 10
-4
 20
4
  0
VERTEX
  8
1
 10
34
 20
4
  0
VERTEX
  8
1
 10
34
 20
-20
  0
VERTEX
  8
1
 10
-4
 20
-20
  0
VERTEX
  8
1
 10
-4
 20
4
  0
SEQEND
  8
1
  0
POLYLINE
  8
1
 66
1
  0
VERTEX
  8
1
 10
-34
 20
24
  0
VERTEX
  8
1
 10
-4
 20
24
  0
VERTEX
  8
1
 10
-4
 20
-20
  0
VERTEX
  8
1
 10
-34
 20
-20
  0
VERTEX
  8
1
 10
-34
 20
24
  0
SEQEND
  8
1
  0
TEXT
  8
1
 40
2.475
 41
0.75
  1
3
  7
STANDARD
 72
2
 73
3
 10
23.7652210235596
 20
8.58125
 11
23.7652210235596
 21
8.58125
  0
TEXT
  8
1
 40
2.475
 41
0.75
  1
2
  7
STANDARD
 73
3
 10
28.8
 20
8.58125
 11
28.8
 21
8.58125
  0
TEXT
  8
1
 40
2.475
 41
0.75
  1
82
  7
STANDARD
 10
0.805388259887697
 20
-23.9625
  0
TEXT
  8
1
 40
2.475
 41
0.75
  1
1
  7
STANDARD
 10
28.8
 20
-23.9625
  0
LINE
  8
1
 10
0
 20
-20
 11
0
 21
-24
  0
LINE
  8
1
 10
28
 20
-20
 11
28
 21
-24
  0
LINE
  8
1
 10
28
 20
4
 11
28
 21
8
  0
LINE
  8
1
 10
24
 20
4
 11
24
 21
8
  0
POLYLINE
  8
1
 70
1
 66
1
 40
0.5
 41
0.5
  0
VERTEX
  8
1
 10
27.75
 20
-16
 42
1
  0
VERTEX
  8
1
 10
28.25
 20
-16
 42
1
  0
SEQEND
  8
1
  0
POLYLINE
  8
1
 70
1
 66
1
 40
0.5
 41
0.5
  0
VERTEX
  8
1
 10
27.75
 20
0
 42
1
  0
VERTEX
  8
1
 10
28.25
 20
0
 42
1
  0
SEQEND
  8
1
  0
LINE
  8
1
 10
-26
 20
8
 11
-22
 21
6
  0
POLYLINE
  8
1
 66
1
  0
VERTEX
  8
1
 10
-22
 20
10
  0
VERTEX
  8
1
 10
-26
 20
10
  0
VERTEX
  8
1
 10
-26
 20
4
  0
VERTEX
  8
1
 10
-22
 20
4
  0
VERTEX
  8
1
 10
-22
 20
10
  0
SEQEND
  8
1
  0
LINE
  8
1
 10
24
 20
-4
 11
24
 21
4
  0
LINE
  8
1
 10
28
 20
-4
 11
28
 21
4
  0
POLYLINE
  8
1
 66
1
  0
VERTEX
  8
1
 10
-4
 20
-8
  0
VERTEX
  8
1
 10
8
 20
-8
  0
VERTEX
  8
1
 10
8
 20
0
  0
VERTEX
  8
1
 10
28
 20
0
  0
SEQEND
  8
1
  0
LINE
  8
1
 10
28
 20
-12
 11
28
 21
-20
  0
POLYLINE
  8
1
 66
1
  0
VERTEX
  8
1
 10
-4
 20
-4
  0
VERTEX
  8
1
 10
4
 20
-4
  0
VERTEX
  8
1
 10
4
 20
-16
  0
VERTEX
  8
1
 10
28
 20
-16
  0
SEQEND
  8
1
  0
POLYLINE
  8
1
 66
1
  0
VERTEX
  8
1
 10
-4
 20
-12
  0
VERTEX
  8
1
 10
12
 20
-12
  0
VERTEX
  8
1
 10
12
 20
-10
  0
SEQEND
  8
1
  0
POLYLINE
  8
1
 66
1
  0
VERTEX
  8
1
 10
-4
 20
-16
  0
VERTEX
  8
1
 10
0
 20
-16
  0
VERTEX
  8
1
 10
0
 20
-20
  0
SEQEND
  8
1
  0
LINE
  8
1
 10
-16
 20
8
 11
-16
 21
10
  0
POLYLINE
  8
1
 66
1
  0
VERTEX
  8
1
 10
-16
 20
8
  0
VERTEX
  8
1
 10
-12
 20
8
  0
VERTEX
  8
1
 10
-12
 20
-8
  0
VERTEX
  8
1
 10
-4
 20
-8
  0
SEQEND
  8
1
  0
POLYLINE
  8
1
 66
1
  0
VERTEX
  8
1
 10
-26
 20
2
  0
VERTEX
  8
1
 10
-30
 20
2
  0
VERTEX
  8
1
 10
-30
 20
2
  0
VERTEX
  8
1
 10
-30
 20
20
  0
VERTEX
  8
1
 10
-30
 20
20
  0
VERTEX
  8
1
 10
-8
 20
20
  0
VERTEX
  8
1
 10
-8
 20
-4
  0
VERTEX
  8
1
 10
-4
 20
-4
  0
SEQEND
  8
1
  0
POLYLINE
  8
1
 66
1
  0
VERTEX
  8
1
 10
-18
 20
-2
  0
VERTEX
  8
1
 10
-16
 20
-2
  0
VERTEX
  8
1
 10
-16
 20
-12
  0
VERTEX
  8
1
 10
-4
 20
-12
  0
SEQEND
  8
1
  0
POLYLINE
  8
1
 66
1
  0
VERTEX
  8
1
 10
-26
 20
-2
  0
VERTEX
  8
1
 10
-30
 20
-2
  0
VERTEX
  8
1
 10
-30
 20
-16
  0
VERTEX
  8
1
 10
-4
 20
-16
  0
SEQEND
  8
1
  0
POLYLINE
  8
1
 66
1
  0
VERTEX
  8
1
 10
-24
 20
-4
  0
VERTEX
  8
1
 10
-22
 20
-4.41666666666668
  0
VERTEX
  8
1
 10
-26
 20
-5.25
  0
VERTEX
  8
1
 10
-22
 20
-6.08333333333332
  0
VERTEX
  8
1
 10
-26
 20
-6.91666666666666
  0
VERTEX
  8
1
 10
-22
 20
-7.75
  0
VERTEX
  8
1
 10
-26
 20
-8.58333333333333
  0
VERTEX
  8
1
 10
-24
 20
-9
  0
SEQEND
  8
1
  0
LINE
  8
1
 10
16
 20
-10
 11
12
 21
-10
  0
LINE
  8
1
 10
19.4640885929691
 20
-10
 11
22
 21
-10
  0
LINE
  8
1
 10
16
 20
-8
 11
16
 21
-12
  0
LINE
  8
1
 10
16
 20
-8
 11
19.4641016151378
 21
-10
  0
LINE
  8
1
 10
16
 20
-12
 11
19.4641016151378
 21
-10
  0
POLYLINE
  8
1
 66
1
  0
VERTEX
  8
1
 10
30
 20
-12
  0
VERTEX
  8
1
 10
30
 20
-4
  0
VERTEX
  8
1
 10
22
 20
-4
  0
VERTEX
  8
1
 10
22
 20
-12
  0
VERTEX
  8
1
 10
30
 20
-12
  0
SEQEND
  8
1
  0
LINE
  8
1
 10
28
 20
-4
 11
28
 21
-12
  0
INSERT
  8
1
  2
LCA1
 10
28
 20
-12
 50
-90
  0
INSERT
  8
1
  2
LCA1R
 10
28
 20
-4
 50
-90
  0
POLYLINE
  8
1
 66
1
  0
VERTEX
  8
1
 10
-26
 20
-4
  0
VERTEX
  8
1
 10
-18
 20
-4
  0
VERTEX
  8
1
 10
-18
 20
4
  0
VERTEX
  8
1
 10
-26
 20
4
  0
VERTEX
  8
1
 10
-26
 20
-4
  0
SEQEND
  8
1
  0
LINE
  8
1
 10
-18
 20
-2
 11
-26
 21
-2
  0
INSERT
  8
1
  2
LCA1
 10
-26
 20
-2
 50
-180
  0
INSERT
  8
1
  2
LCA1R
 10
-18
 20
-2
 50
-180
  0
POLYLINE
  8
1
 66
1
  0
VERTEX
  8
1
 10
-22.0711274370492
 20
13.3577492742933
  0
VERTEX
  8
1
 10
-21.5000112158718
 20
14.4999775682063
  0
SEQEND
  8
1
  0
LINE
  8
1
 10
-23.0000112158718
 20
11.4999775682063
 11
-23.5711247574225
 21
12.6422072019297
  0
LINE
  8
1
 10
-23.9288949946943
 20
13.3577492742933
 11
-24.5000112158718
 21
14.4999775682063
  0
POLYLINE
  8
1
 66
1
  0
VERTEX
  8
1
 10
-23.0000112158718
 20
11.4999775682063
  0
VERTEX
  8
1
 10
-22.4288976743211
 20
12.6422072019297
  0
SEQEND
  8
1
  0
LINE
  8
1
 10
-24.5000112158718
 20
14.4999775682063
 11
-23.4000112158718
 21
14.4999775682063
  0
LINE
  8
1
 10
-22.6000112158718
 20
14.4999775682063
 11
-21.5000112158718
 21
14.4999775682063
  0
POLYLINE
  8
1
 66
1
  0
VERTEX
  8
1
 10
-26
 20
10
  0
VERTEX
  8
1
 10
-20
 20
10
  0
VERTEX
  8
1
 10
-20
 20
16
  0
VERTEX
  8
1
 10
-26
 20
16
  0
VERTEX
  8
1
 10
-26
 20
10
  0
SEQEND
  8
1
  0
ARC
  8
1
 10
-18.25
 20
12
 40
0.5
 50
270
 51
90
  0
LINE
  8
1
 10
-18.25
 20
11.5
 11
-19
 21
11.5
  0
LINE
  8
1
 10
-19
 20
12.5
 11
-18.25
 21
12.5
  0
LINE
  8
1
 10
-19
 20
10.65
 11
-19
 21
12.5
  0
ARC
  8
1
 10
-15.5
 20
14.5
 40
1
 50
0
 51
180
  0
LINE
  8
1
 10
-14.5
 20
13.5
 11
-14.5
 21
14.5
  0
LINE
  8
1
 10
-16.5
 20
13.5
 11
-16.5
 21
14.5
  0
POLYLINE
  8
1
 66
1
  0
VERTEX
  8
1
 10
-20
 20
16
  0
VERTEX
  8
1
 10
-14
 20
16
  0
VERTEX
  8
1
 10
-14
 20
10
  0
VERTEX
  8
1
 10
-20
 20
10
  0
VERTEX
  8
1
 10
-20
 20
16
  0
SEQEND
  8
1
  0
LINE
  8
1
 10
-20
 20
16
 11
-14
 21
10
  0
CIRCLE
  8
CONNECTIONS
 10
24
 20
8
 40
0
  0
CIRCLE
  8
CONNECTIONS
 10
28
 20
8
 40
0
  0
CIRCLE
  8
CONNECTIONS
 10
0
 20
-24
 40
0
  0
CIRCLE
  8
CONNECTIONS
 10
28
 20
-24
 40
0
  0
CIRCLE
  8
CONNECTIONS
 10
-24
 20
4
 40
0
  0
ENDBLK
  8
0
  0
ENDSEC
  0
SECTION
  2
ENTITIES
  0
INSERT
  8
1
  2
B12346_00995417
 10
34
 20
24
  0
ENDSEC
  0
EOF
