  0
SECTION
  2
HEADER
  9
$LIMMIN
 10
0
 20
0
  9
$LIMMAX
 10
52.5
 20
74.25
  9
$EXTMIN
 10
0
 20
34.1346900304159
  9
$EXTMAX
 10
0
 20
21.7691842714946
  0
ENDSEC
  0
SECTION
  2
TABLES
  0
TABLE
  2
LTYPE
 70
9
  0
LTYPE
  2
CONTINUOUS
 70
64
  3
Solid line
 72
65
 73
0
 40
0
  0
LTYPE
  2
DASHED
 70
64
  3
__ __ __ __ __ __ __ __ __
 72
65
 73
2
 40
0.75
 49
0.5
 49
-0.25
  0
LTYPE
  2
DOT
 70
64
  3
...........................
 72
65
 73
2
 40
0.25
 49
0
 49
-0.25
  0
LTYPE
  2
DASHDOT
 70
64
  3
__ . __ . __ . __ . __ . __ . 
 72
65
 73
4
 40
1
 49
0.5
 49
-0.25
 49
0
 49
-0.25
  0
ENDTAB
  0
TABLE
  2
LAYER
 70
10
  0
LAYER
  2
1
 70
0
 62
7
  6
CONTINUOUS
  0
LAYER
  2
CONNECTIONS
 70
0
 62
-7
  6
CONTINUOUS
  0
ENDTAB
  0
ENDSEC
  0
SECTION
  2
BLOCKS
  0
BLOCK
  8
0
  2
TRICON
 70
0
 10
0
 20
0
  0
POLYLINE
  8
1
 70
1
 66
1
 40
0.5
 41
0.5
  0
VERTEX
  8
1
 10
-0.25
 20
0
 42
1
  0
VERTEX
  8
1
 10
0.25
 20
0
 42
1
  0
SEQEND
  8
1
  0
ENDBLK
  8
0
  0
BLOCK
  8
0
  2
TRICONSMALL
 70
0
 10
0
 20
0
  0
POLYLINE
  8
1
 70
1
 66
1
 40
0.25
 41
0.25
  0
VERTEX
  8
1
 10
-0.125
 20
0
 42
1
  0
VERTEX
  8
1
 10
0.125
 20
0
 42
1
  0
SEQEND
  8
1
  0
ENDBLK
  8
0
  0
BLOCK
  8
0
  2
TRICONCIRCLE
 70
0
 10
0
 20
0
  0
CIRCLE
  8
1
 10
0
 20
0
 40
0.5
  0
ENDBLK
  8
0
  0
BLOCK
  8
0
  2
LCBP0
 70
0
 10
0
 20
0
  0
LINE
  8
1
 10
0
 20
-0.46875
 11
0
 21
0.46875
  0
ENDBLK
  8
0
  0
BLOCK
  8
0
  2
LCBP1
 70
0
 10
0
 20
0
  0
LINE
  8
1
 10
0
 20
-0.625
 11
0
 21
0.625
  0
ENDBLK
  8
0
  0
BLOCK
  8
0
  2
LCBP2
 70
0
 10
0
 20
0
  0
LINE
  8
1
 10
0
 20
-0.9375
 11
0
 21
0.9375
  0
ENDBLK
  8
0
  0
BLOCK
  8
0
  2
LCA1
 70
0
 10
0
 20
0
  0
SOLID
  8
1
 62
7 
 10
0
 20
0
 11
-1.4
 21
-0.275
 12
-1.4
 22
0.275
 13
-1.4
 23
0.275
  0
ENDBLK
  8
0
  0
BLOCK
  8
0
  2
LCA2
 70
0
 10
0
 20
0
  0
SOLID
  8
1
 62
7 
 10
0
 20
0
 11
-1.65
 21
-0.525
 12
-1.65
 22
0.525
 13
-1.65
 23
0.525
  0
ENDBLK
  8
0
  0
BLOCK
  8
0
  2
LCA3
 70
0
 10
0
 20
0
  0
SOLID
  8
1
 62
7 
 10
0
 20
0
 11
-2.15
 21
-1.15
 12
-2.15
 22
1.15
 13
-2.15
 23
1.15
  0
ENDBLK
  8
0
  0
BLOCK
  8
0
  2
LCA1R
 70
0
 10
0
 20
0
  0
SOLID
  8
1
 62
7 
 10
0
 20
0
 11
1.4
 21
-0.275
 12
1.4
 22
0.275
 13
1.4
 23
0.275
  0
ENDBLK
  8
0
  0
BLOCK
  8
0
  2
LCA2R
 70
0
 10
0
 20
0
  0
SOLID
  8
1
 62
7 
 10
0
 20
0
 11
1.65
 21
-0.525
 12
1.65
 22
0.525
 13
1.65
 23
0.525
  0
ENDBLK
  8
0
  0
BLOCK
  8
0
  2
LCA3R
 70
0
 10
0
 20
0
  0
SOLID
  8
1
 62
7 
 10
0
 20
0
 11
2.15
 21
-1.15
 12
2.15
 22
1.15
 13
2.15
 23
1.15
  0
ENDBLK
  8
0
  0
BLOCK
  8
0
  2
B2191_00995410
 70
0
 10
0
 20
0
  0
POLYLINE
  8
1
 66
1
  0
VERTEX
  8
1
 10
-11.0030097484589
 20
4.61540802319844
  0
VERTEX
  8
1
 10
0.496990251541138
 20
4.61540802319844
  0
VERTEX
  8
1
 10
0.496990251541138
 20
0.115408023198444
  0
VERTEX
  8
1
 10
-11.0030097484589
 20
0.115408023198444
  0
VERTEX
  8
1
 10
-11.0030097484589
 20
4.61540802319844
  0
SEQEND
  8
1
  0
POLYLINE
  8
1
 66
1
  0
VERTEX
  8
1
 10
-11.0030097484589
 20
-0.884591976801556
  0
VERTEX
  8
1
 10
0.496990251541138
 20
-0.884591976801556
  0
VERTEX
  8
1
 10
0.496990251541138
 20
-9.88459197680155
  0
VERTEX
  8
1
 10
-11.0030097484589
 20
-9.88459197680155
  0
VERTEX
  8
1
 10
-11.0030097484589
 20
-0.884591976801556
  0
SEQEND
  8
1
  0
LINE
  8
1
 10
-8.50303208633613
 20
9.11538568532118
 11
-13.5030097484589
 21
4.1154080231984
  0
POLYLINE
  8
1
 66
1
  0
VERTEX
  8
1
 10
-13.5030097484589
 20
9.11540802319844
  0
VERTEX
  8
1
 10
2.49699025154114
 20
9.11540802319844
  0
VERTEX
  8
1
 10
2.49699025154114
 20
-10.8845919768016
  0
VERTEX
  8
1
 10
-13.5030097484589
 20
-10.8845919768016
  0
VERTEX
  8
1
 10
-13.5030097484589
 20
9.11540802319844
  0
SEQEND
  8
1
  0
TEXT
  8
1
 40
1.12499992847443
 41
0.75
  1
I
  7
STANDARD
 72
1
 73
2
 10
-5.67012646993001
 20
-8.4628795782725
 11
-5.67012646993001
 21
-8.4628795782725
  0
TEXT
  8
1
 40
1.12499992847443
 41
0.75
  1
U
  7
STANDARD
 72
1
 73
2
 10
-5.67012646993002
 20
-6.46287957827252
 11
-5.67012646993002
 21
-6.46287957827252
  0
TEXT
  8
1
 40
1.125
 41
0.75
  1
NPN
  7
STANDARD
 72
1
 73
2
 10
-5.67012646993003
 20
-4.46287957827252
 11
-5.67012646993003
 21
-4.46287957827252
  0
TEXT
  8
1
 40
1.125
 41
0.75
  1
PNP
  7
STANDARD
 72
1
 73
2
 10
-5.67012646993002
 20
-2.46287957827249
 11
-5.67012646993002
 21
-2.46287957827249
  0
TEXT
  8
1
 40
1.12499992847443
 41
0.75
  1
NPN
  7
STANDARD
 73
2
 10
-6.88829751014711
 20
1.03712042172748
 11
-6.88829751014711
 21
1.03712042172748
  0
TEXT
  8
1
 40
1.12499992847443
 41
0.75
  1
PNP/IO-Link
  7
STANDARD
 73
2
 10
-6.8796169281006
 20
3.03712042172749
 11
-6.8796169281006
 21
3.03712042172749
  0
TEXT
  8
1
 40
1.8
 41
0.75
  1
3
  7
STANDARD
 10
2.89699025154114
 20
-6.43511249224345
  0
TEXT
  8
1
 40
1.8
 41
0.75
  1
2
  7
STANDARD
 10
2.89699025154114
 20
-2.43511249224345
  0
TEXT
  8
1
 40
1.8
 41
0.75
  1
4
  7
STANDARD
 10
2.89699025154114
 20
1.56488750775656
  0
TEXT
  8
1
 40
1.8
 41
0.75
  1
1
  7
STANDARD
 10
2.89699025154114
 20
5.56488750775656
  0
TEXT
  8
1
 40
1.8
 41
0.75
  1
+24V
  7
STANDARD
 10
9.38008144696554
 20
4.19014776547751
  0
TEXT
  8
1
 40
1.8
 41
0.75
  1
0V
  7
STANDARD
 10
9.30005752245585
 20
-7.78459197680155
  0
TEXT
  8
1
 40
1.8
 41
0.75
  1
P
  7
STANDARD
 72
2
 10
-14.5858640193939
 20
8.29014840126038
 11
-14.5858640193939
 21
8.29014840126038
  0
LINE
  8
1
 10
-13.5030097484589
 20
7.61540802319845
 11
-13.5030097484589
 21
6.61540802319845
  0
LINE
  8
1
 10
-13.5030097484589
 20
7.61540802319845
 11
-12.5030097484589
 21
7.11540802319845
  0
LINE
  8
1
 10
-12.5030097484589
 20
7.11540802319845
 11
-13.5030097484589
 21
6.61540802319845
  0
LINE
  8
1
 10
-13.5030097484589
 20
7.61540802319845
 11
-13.5030097484589
 21
6.61540802319845
  0
LINE
  8
1
 10
-16.5030097484589
 20
7.11540802319845
 11
-13.5030097484589
 21
7.11540802319845
  0
SOLID
  8
1
 10
5.49699025154114
 20
-2.63459197680155
 11
6.99699025154114
 21
-2.63459197680155
 12
5.49699025154114
 22
-3.13459197680155
 13
6.99699025154114
 23
-3.13459197680155
  0
SOLID
  8
1
 10
6.99699025154114
 20
-3.13459197680155
 11
5.49699025154114
 21
-3.13459197680155
 12
5.49699025154114
 22
-3.13459197680155
 13
5.49699025154114
 23
-2.63459197680155
  0
LINE
  8
1
 10
0.496990251541137
 20
-2.88459197680155
 11
5.49699025154114
 21
-2.88459197680155
  0
SOLID
  8
1
 10
5.49699025154114
 20
1.36540802319845
 11
6.99699025154114
 21
1.36540802319845
 12
5.49699025154114
 22
0.865408023198446
 13
6.99699025154114
 23
0.865408023198446
  0
SOLID
  8
1
 10
6.99699025154114
 20
0.865408023198446
 11
5.49699025154114
 21
0.865408023198446
 12
5.49699025154114
 22
0.865408023198446
 13
5.49699025154114
 23
1.36540802319845
  0
LINE
  8
1
 10
0.496990251541137
 20
1.11540802319845
 11
5.49699025154114
 21
1.11540802319845
  0
LINE
  8
1
 10
2.49699025154114
 20
5.11540802319845
 11
5.49699025154114
 21
5.11540802319845
  0
SOLID
  8
1
 10
5.49699025154114
 20
5.36540802319845
 11
6.99699025154114
 21
5.36540802319845
 12
5.49699025154114
 22
4.86540802319845
 13
6.99699025154114
 23
4.86540802319845
  0
SOLID
  8
1
 10
6.99699025154114
 20
4.86540802319845
 11
5.49699025154114
 21
4.86540802319845
 12
5.49699025154114
 22
4.86540802319845
 13
5.49699025154114
 23
5.36540802319845
  0
LINE
  8
1
 10
2.49699025154114
 20
-6.88459197680155
 11
5.49699025154114
 21
-6.88459197680155
  0
SOLID
  8
1
 10
5.49699025154114
 20
-6.63459197680155
 11
6.99699025154114
 21
-6.63459197680155
 12
5.49699025154114
 22
-7.13459197680155
 13
6.99699025154114
 23
-7.13459197680155
  0
SOLID
  8
1
 10
6.99699025154114
 20
-7.13459197680155
 11
5.49699025154114
 21
-7.13459197680155
 12
5.49699025154114
 22
-7.13459197680155
 13
5.49699025154114
 23
-6.63459197680155
  0
ENDBLK
  8
0
  0
ENDSEC
  0
SECTION
  2
ENTITIES
  0
INSERT
  8
1
  2
B2191_00995410
 10
17.0673449357351
 20
10.8845919768016
  0
ENDSEC
  0
EOF
