  0
SECTION
  2
HEADER
  9
$LIMMIN
 10
0
 20
0
  9
$LIMMAX
 10
52.5
 20
74.25
  9
$EXTMIN
 10
0
 20
108
  9
$EXTMAX
 10
0
 20
56
  0
ENDSEC
  0
SECTION
  2
TABLES
  0
TABLE
  2
LTYPE
 70
9
  0
LTYPE
  2
CONTINUOUS
 70
64
  3
Solid line
 72
65
 73
0
 40
0
  0
LTYPE
  2
DASHED
 70
64
  3
__ __ __ __ __ __ __ __ __
 72
65
 73
2
 40
0.75
 49
0.5
 49
-0.25
  0
LTYPE
  2
DOT
 70
64
  3
...........................
 72
65
 73
2
 40
0.25
 49
0
 49
-0.25
  0
LTYPE
  2
DASHDOT
 70
64
  3
__ . __ . __ . __ . __ . __ . 
 72
65
 73
4
 40
1
 49
0.5
 49
-0.25
 49
0
 49
-0.25
  0
ENDTAB
  0
TABLE
  2
LAYER
 70
10
  0
LAYER
  2
1
 70
0
 62
7
  6
CONTINUOUS
  0
LAYER
  2
CONNECTIONS
 70
0
 62
-7
  6
CONTINUOUS
  0
ENDTAB
  0
ENDSEC
  0
SECTION
  2
BLOCKS
  0
BLOCK
  8
0
  2
TRICON
 70
0
 10
0
 20
0
  0
POLYLINE
  8
1
 70
1
 66
1
 40
0.5
 41
0.5
  0
VERTEX
  8
1
 10
-0.25
 20
0
 42
1
  0
VERTEX
  8
1
 10
0.25
 20
0
 42
1
  0
SEQEND
  8
1
  0
ENDBLK
  8
0
  0
BLOCK
  8
0
  2
TRICONSMALL
 70
0
 10
0
 20
0
  0
POLYLINE
  8
1
 70
1
 66
1
 40
0.25
 41
0.25
  0
VERTEX
  8
1
 10
-0.125
 20
0
 42
1
  0
VERTEX
  8
1
 10
0.125
 20
0
 42
1
  0
SEQEND
  8
1
  0
ENDBLK
  8
0
  0
BLOCK
  8
0
  2
TRICONCIRCLE
 70
0
 10
0
 20
0
  0
CIRCLE
  8
1
 10
0
 20
0
 40
0.5
  0
ENDBLK
  8
0
  0
BLOCK
  8
0
  2
LCBP0
 70
0
 10
0
 20
0
  0
LINE
  8
1
 10
0
 20
-0.46875
 11
0
 21
0.46875
  0
ENDBLK
  8
0
  0
BLOCK
  8
0
  2
LCBP1
 70
0
 10
0
 20
0
  0
LINE
  8
1
 10
0
 20
-0.625
 11
0
 21
0.625
  0
ENDBLK
  8
0
  0
BLOCK
  8
0
  2
LCBP2
 70
0
 10
0
 20
0
  0
LINE
  8
1
 10
0
 20
-0.9375
 11
0
 21
0.9375
  0
ENDBLK
  8
0
  0
BLOCK
  8
0
  2
LCA1
 70
0
 10
0
 20
0
  0
SOLID
  8
1
 62
7 
 10
0
 20
0
 11
-1.4
 21
-0.275
 12
-1.4
 22
0.275
 13
-1.4
 23
0.275
  0
ENDBLK
  8
0
  0
BLOCK
  8
0
  2
LCA2
 70
0
 10
0
 20
0
  0
SOLID
  8
1
 62
7 
 10
0
 20
0
 11
-1.65
 21
-0.525
 12
-1.65
 22
0.525
 13
-1.65
 23
0.525
  0
ENDBLK
  8
0
  0
BLOCK
  8
0
  2
LCA3
 70
0
 10
0
 20
0
  0
SOLID
  8
1
 62
7 
 10
0
 20
0
 11
-2.15
 21
-1.15
 12
-2.15
 22
1.15
 13
-2.15
 23
1.15
  0
ENDBLK
  8
0
  0
BLOCK
  8
0
  2
LCA1R
 70
0
 10
0
 20
0
  0
SOLID
  8
1
 62
7 
 10
0
 20
0
 11
1.4
 21
-0.275
 12
1.4
 22
0.275
 13
1.4
 23
0.275
  0
ENDBLK
  8
0
  0
BLOCK
  8
0
  2
LCA2R
 70
0
 10
0
 20
0
  0
SOLID
  8
1
 62
7 
 10
0
 20
0
 11
1.65
 21
-0.525
 12
1.65
 22
0.525
 13
1.65
 23
0.525
  0
ENDBLK
  8
0
  0
BLOCK
  8
0
  2
LCA3R
 70
0
 10
0
 20
0
  0
SOLID
  8
1
 62
7 
 10
0
 20
0
 11
2.15
 21
-1.15
 12
2.15
 22
1.15
 13
2.15
 23
1.15
  0
ENDBLK
  8
0
  0
BLOCK
  8
0
  2
B165339_00995405
 70
0
 10
0
 20
0
  0
POLYLINE
  8
1
  6
DASHDOT
 66
1
  0
VERTEX
  8
1
 10
-54
 20
24
  0
VERTEX
  8
1
 10
54
 20
24
  0
VERTEX
  8
1
 10
54
 20
-24
  0
VERTEX
  8
1
 10
-54
 20
-24
  0
VERTEX
  8
1
 10
-54
 20
24
  0
SEQEND
  8
1
  0
TEXT
  8
1
 40
2.475
 41
0.75
  1
1
  7
STANDARD
 72
2
 10
-12
 20
-28.1625
 11
-12
 21
-28.1625
  0
TEXT
  8
1
 40
2.475
 41
0.75
  1
3
  7
STANDARD
 10
4.4
 20
-28.3625
  0
TEXT
  8
1
 40
2.475
 41
0.75
  1
2
  7
STANDARD
 72
2
 73
3
 10
41.8
 20
28.38125
 11
41.8
 21
28.38125
  0
LINE
  8
1
 10
-12
 20
-24
 11
-12
 21
-28
  0
LINE
  8
1
 10
42
 20
24
 11
42
 21
28
  0
LINE
  8
1
 10
4
 20
-24
 11
4
 21
-28
  0
TEXT
  8
1
 40
2.475
 41
0.75
  1
12
  7
STANDARD
 10
9.06765683492025
 20
-2.13473259607951
  0
TEXT
  8
1
 40
2.475
 41
0.75
  1
12
  7
STANDARD
 10
-44.7323431650798
 20
-2.13473259607951
  0
POLYLINE
  8
1
  6
DOT
 66
1
  0
VERTEX
  8
1
 10
-12
 20
-8
  0
VERTEX
  8
1
 10
-10
 20
-10
  0
VERTEX
  8
1
 10
14
 20
-10
  0
VERTEX
  8
1
 10
14
 20
-8
  0
SEQEND
  8
1
  0
POLYLINE
  8
1
  6
DOT
 66
1
  0
VERTEX
  8
1
 10
-12
 20
-8
  0
VERTEX
  8
1
 10
-14
 20
-10
  0
VERTEX
  8
1
 10
-40
 20
-10
  0
VERTEX
  8
1
 10
-40
 20
-8
  0
SEQEND
  8
1
  0
LINE
  8
1
 10
-12
 20
-8
 11
-12
 21
-24
  0
POLYLINE
  8
1
 66
1
  0
VERTEX
  8
1
 10
-20
 20
-12
  0
VERTEX
  8
1
 10
-50
 20
-12
  0
VERTEX
  8
1
 10
-50
 20
20
  0
VERTEX
  8
1
 10
42
 20
20
  0
SEQEND
  8
1
  0
POLYLINE
  8
1
 66
1
  0
VERTEX
  8
1
 10
34
 20
-8
  0
VERTEX
  8
1
 10
34
 20
-12
  0
VERTEX
  8
1
 10
-20
 20
-12
  0
VERTEX
  8
1
 10
-20
 20
-8
  0
SEQEND
  8
1
  0
POLYLINE
  8
1
 66
1
  0
VERTEX
  8
1
 10
38
 20
-8
  0
VERTEX
  8
1
 10
38
 20
-20
  0
VERTEX
  8
1
 10
-16
 20
-20
  0
VERTEX
  8
1
 10
-16
 20
-8
  0
SEQEND
  8
1
  0
LINE
  8
1
 10
4
 20
16
 11
4
 21
-24
  0
POLYLINE
  8
1
 66
1
  0
VERTEX
  8
1
 10
-12
 20
0
  0
VERTEX
  8
1
 10
-12
 20
12
  0
VERTEX
  8
1
 10
0
 20
12
  0
VERTEX
  8
1
 10
0
 20
-16
  0
VERTEX
  8
1
 10
42
 20
-16
  0
VERTEX
  8
1
 10
42
 20
-8
  0
SEQEND
  8
1
  0
POLYLINE
  8
1
 66
1
  0
VERTEX
  8
1
 10
-20
 20
0
  0
VERTEX
  8
1
 10
-20
 20
16
  0
VERTEX
  8
1
 10
34
 20
16
  0
VERTEX
  8
1
 10
34
 20
0
  0
SEQEND
  8
1
  0
LINE
  8
1
 10
42
 20
24
 11
42
 21
0
  0
POLYLINE
  8
1
 70
1
 66
1
 40
0.75
 41
0.75
  0
VERTEX
  8
1
 10
41.625
 20
20
 42
1
  0
VERTEX
  8
1
 10
42.375
 20
20
 42
1
  0
SEQEND
  8
1
  0
POLYLINE
  8
1
 70
1
 66
1
 40
0.75
 41
0.75
  0
VERTEX
  8
1
 10
3.625
 20
16
 42
1
  0
VERTEX
  8
1
 10
4.375
 20
16
 42
1
  0
SEQEND
  8
1
  0
POLYLINE
  8
1
 70
1
 66
1
 40
0.75
 41
0.75
  0
VERTEX
  8
1
 10
-20.375
 20
-12
 42
1
  0
VERTEX
  8
1
 10
-19.625
 20
-12
 42
1
  0
SEQEND
  8
1
  0
POLYLINE
  8
1
 70
1
 66
1
 40
0.75
 41
0.75
  0
VERTEX
  8
1
 10
3.625
 20
-20
 42
1
  0
VERTEX
  8
1
 10
4.375
 20
-20
 42
1
  0
SEQEND
  8
1
  0
LINE
  8
1
 10
10
 20
-8
 11
12
 21
-4
  0
POLYLINE
  8
1
 66
1
  0
VERTEX
  8
1
 10
8
 20
-4
  0
VERTEX
  8
1
 10
14
 20
-4
  0
VERTEX
  8
1
 10
14
 20
-8
  0
VERTEX
  8
1
 10
8
 20
-8
  0
VERTEX
  8
1
 10
8
 20
-4
  0
SEQEND
  8
1
  0
LINE
  8
1
 10
-44
 20
-8
 11
-42
 21
-4
  0
POLYLINE
  8
1
 66
1
  0
VERTEX
  8
1
 10
-46
 20
-4
  0
VERTEX
  8
1
 10
-40
 20
-4
  0
VERTEX
  8
1
 10
-40
 20
-8
  0
VERTEX
  8
1
 10
-46
 20
-8
  0
VERTEX
  8
1
 10
-46
 20
-4
  0
SEQEND
  8
1
  0
POLYLINE
  8
1
 66
1
  0
VERTEX
  8
1
 10
49
 20
-6
  0
VERTEX
  8
1
 10
48.5833333333333
 20
-8
  0
VERTEX
  8
1
 10
47.75
 20
-4
  0
VERTEX
  8
1
 10
46.9166666666667
 20
-8
  0
VERTEX
  8
1
 10
46.0833333333334
 20
-4
  0
VERTEX
  8
1
 10
45.25
 20
-8
  0
VERTEX
  8
1
 10
44.4166666666667
 20
-4
  0
VERTEX
  8
1
 10
44
 20
-6
  0
SEQEND
  8
1
  0
POLYLINE
  8
1
 66
1
  0
VERTEX
  8
1
 10
-5
 20
-6
  0
VERTEX
  8
1
 10
-5.41666666666672
 20
-8
  0
VERTEX
  8
1
 10
-6.25
 20
-4
  0
VERTEX
  8
1
 10
-7.08333333333329
 20
-8
  0
VERTEX
  8
1
 10
-7.91666666666663
 20
-4
  0
VERTEX
  8
1
 10
-8.75
 20
-8
  0
VERTEX
  8
1
 10
-9.58333333333332
 20
-4
  0
VERTEX
  8
1
 10
-10
 20
-6
  0
SEQEND
  8
1
  0
ARC
  8
1
 10
45.7238592932174
 20
3.65602820941377
 40
0.894427190999916
 50
47.6225438058942
 51
201.057492628817
  0
ARC
  8
1
 10
45.6633609753731
 20
3.58613525006233
 40
0.824621125123534
 50
196.339530500047
 51
317.303287032121
  0
LINE
  8
1
 10
46.3
 20
3.58333333333333
 11
46.3
 21
3.08333333333333
  0
POLYLINE
  8
1
 66
1
  0
VERTEX
  8
1
 10
45.7
 20
3.58333333333332
  0
VERTEX
  8
1
 10
46.3
 20
3.58333333333332
  0
SEQEND
  8
1
  0
LINE
  8
1
 10
48.65
 20
6.5
 11
49.35
 21
6.5
  0
LINE
  8
1
 10
47.2
 20
6.5
 11
49
 21
7.2
  0
LINE
  8
1
 10
46.5
 20
6.5
 11
47.2
 21
6.5
  0
POLYLINE
  8
1
 66
1
  0
VERTEX
  8
1
 10
44
 20
8
  0
VERTEX
  8
1
 10
50
 20
8
  0
VERTEX
  8
1
 10
50
 20
2
  0
VERTEX
  8
1
 10
44
 20
2
  0
VERTEX
  8
1
 10
44
 20
8
  0
SEQEND
  8
1
  0
LINE
  8
1
 10
44
 20
8
 11
50
 21
2
  0
LINE
  8
1
 10
44
 20
2
 11
44
 21
0
  0
ARC
  8
1
 10
-8.2761407067826
 20
3.65602820941377
 40
0.894427190999916
 50
47.6225438058942
 51
201.057492628817
  0
ARC
  8
1
 10
-8.33663902462692
 20
3.58613525006233
 40
0.824621125123534
 50
196.339530500047
 51
317.303287032121
  0
LINE
  8
1
 10
-7.7
 20
3.58333333333333
 11
-7.7
 21
3.08333333333333
  0
POLYLINE
  8
1
 66
1
  0
VERTEX
  8
1
 10
-8.30000000000002
 20
3.58333333333332
  0
VERTEX
  8
1
 10
-7.70000000000002
 20
3.58333333333332
  0
SEQEND
  8
1
  0
LINE
  8
1
 10
-5.35
 20
6.5
 11
-4.65
 21
6.5
  0
LINE
  8
1
 10
-6.8
 20
6.5
 11
-5
 21
7.2
  0
LINE
  8
1
 10
-7.5
 20
6.5
 11
-6.8
 21
6.5
  0
POLYLINE
  8
1
 66
1
  0
VERTEX
  8
1
 10
-10
 20
8
  0
VERTEX
  8
1
 10
-4
 20
8
  0
VERTEX
  8
1
 10
-4
 20
2
  0
VERTEX
  8
1
 10
-10
 20
2
  0
VERTEX
  8
1
 10
-10
 20
8
  0
SEQEND
  8
1
  0
LINE
  8
1
 10
-10
 20
8
 11
-4
 21
2
  0
LINE
  8
1
 10
-10
 20
2
 11
-10
 21
0
  0
LINE
  8
1
 10
14
 20
-4
 11
14
 21
-8
  0
POLYLINE
  8
1
 66
1
  0
VERTEX
  8
1
 10
14
 20
-4
  0
VERTEX
  8
1
 10
20
 20
-4
  0
VERTEX
  8
1
 10
20
 20
-8
  0
VERTEX
  8
1
 10
14
 20
-8
  0
VERTEX
  8
1
 10
14
 20
-4
  0
SEQEND
  8
1
  0
LINE
  8
1
 10
14
 20
-4
 11
17.4641016151378
 21
-6
  0
LINE
  8
1
 10
14
 20
-8
 11
17.4641016151378
 21
-6
  0
LINE
  8
1
 10
-40
 20
-4
 11
-40
 21
-8
  0
POLYLINE
  8
1
 66
1
  0
VERTEX
  8
1
 10
-40
 20
-4
  0
VERTEX
  8
1
 10
-34
 20
-4
  0
VERTEX
  8
1
 10
-34
 20
-8
  0
VERTEX
  8
1
 10
-40
 20
-8
  0
VERTEX
  8
1
 10
-40
 20
-4
  0
SEQEND
  8
1
  0
LINE
  8
1
 10
-40
 20
-4
 11
-36.5358983848622
 21
-6
  0
LINE
  8
1
 10
-40
 20
-8
 11
-36.5358983848622
 21
-6
  0
LINE
  8
1
 10
26
 20
-8
 11
22
 21
0
  0
INSERT
  8
1
  2
LCA1
 10
22
 20
0
 50
116.565051177078
  0
INSERT
  8
1
  2
LCA1R
 10
26
 20
-8
 50
116.565051177078
  0
LINE
  8
1
 10
30
 20
-8
 11
30
 21
0
  0
INSERT
  8
1
  2
LCA1
 10
30
 20
0
 50
90
  0
LINE
  8
1
 10
22
 20
-8
 11
22
 21
-6
  0
INSERT
  8
1
  2
LCBP1
 10
22
 20
-6
 50
90
  0
POLYLINE
  8
1
 66
1
  0
VERTEX
  8
1
 10
20
 20
0
  0
VERTEX
  8
1
 10
32
 20
0
  0
VERTEX
  8
1
 10
32
 20
-8
  0
VERTEX
  8
1
 10
20
 20
-8
  0
VERTEX
  8
1
 10
20
 20
0
  0
SEQEND
  8
1
  0
LINE
  8
1
 10
-28
 20
-8
 11
-32
 21
0
  0
INSERT
  8
1
  2
LCA1
 10
-32
 20
0
 50
116.565051177078
  0
INSERT
  8
1
  2
LCA1R
 10
-28
 20
-8
 50
116.565051177078
  0
LINE
  8
1
 10
-24
 20
-8
 11
-24
 21
0
  0
INSERT
  8
1
  2
LCA1
 10
-24
 20
0
 50
90
  0
LINE
  8
1
 10
-32
 20
-8
 11
-32
 21
-6
  0
INSERT
  8
1
  2
LCBP1
 10
-32
 20
-6
 50
90
  0
POLYLINE
  8
1
 66
1
  0
VERTEX
  8
1
 10
-34
 20
0
  0
VERTEX
  8
1
 10
-22
 20
0
  0
VERTEX
  8
1
 10
-22
 20
-8
  0
VERTEX
  8
1
 10
-34
 20
-8
  0
VERTEX
  8
1
 10
-34
 20
0
  0
SEQEND
  8
1
  0
LINE
  8
1
 10
42
 20
-8
 11
42
 21
-6
  0
INSERT
  8
1
  2
LCBP1
 10
42
 20
-6
 50
90
  0
LINE
  8
1
 10
38
 20
-8
 11
42
 21
0
  0
INSERT
  8
1
  2
LCA1
 10
42
 20
0
 50
63.434948822922
  0
INSERT
  8
1
  2
LCA1R
 10
38
 20
-8
 50
63.434948822922
  0
LINE
  8
1
 10
34
 20
-8
 11
34
 21
0
  0
INSERT
  8
1
  2
LCA1
 10
34
 20
0
 50
90
  0
POLYLINE
  8
1
 66
1
  0
VERTEX
  8
1
 10
32
 20
0
  0
VERTEX
  8
1
 10
44
 20
0
  0
VERTEX
  8
1
 10
44
 20
-8
  0
VERTEX
  8
1
 10
32
 20
-8
  0
VERTEX
  8
1
 10
32
 20
0
  0
SEQEND
  8
1
  0
LINE
  8
1
 10
-12
 20
-8
 11
-12
 21
-6
  0
INSERT
  8
1
  2
LCBP1
 10
-12
 20
-6
 50
90
  0
LINE
  8
1
 10
-16
 20
-8
 11
-12
 21
0
  0
INSERT
  8
1
  2
LCA1
 10
-12
 20
0
 50
63.434948822922
  0
INSERT
  8
1
  2
LCA1R
 10
-16
 20
-8
 50
63.434948822922
  0
LINE
  8
1
 10
-20
 20
-8
 11
-20
 21
0
  0
INSERT
  8
1
  2
LCA1
 10
-20
 20
0
 50
90
  0
POLYLINE
  8
1
 66
1
  0
VERTEX
  8
1
 10
-22
 20
0
  0
VERTEX
  8
1
 10
-10
 20
0
  0
VERTEX
  8
1
 10
-10
 20
-8
  0
VERTEX
  8
1
 10
-22
 20
-8
  0
VERTEX
  8
1
 10
-22
 20
0
  0
SEQEND
  8
1
  0
CIRCLE
  8
CONNECTIONS
 10
42
 20
28
 40
0
  0
CIRCLE
  8
CONNECTIONS
 10
4
 20
-28
 40
0
  0
CIRCLE
  8
CONNECTIONS
 10
-12
 20
-28
 40
0
  0
CIRCLE
  8
CONNECTIONS
 10
8
 20
-6
 40
0
  0
CIRCLE
  8
CONNECTIONS
 10
-46
 20
-6
 40
0
  0
ENDBLK
  8
0
  0
ENDSEC
  0
SECTION
  2
ENTITIES
  0
INSERT
  8
1
  2
B165339_00995405
 10
54
 20
28
  0
ENDSEC
  0
EOF
