  0
SECTION
  2
HEADER
  9
$LIMMIN
 10
0
 20
0
  9
$LIMMAX
 10
52.5
 20
74.25
  9
$EXTMIN
 10
0
 20
37.5837049802144
  9
$EXTMAX
 10
0
 20
17.4722325960795
  0
ENDSEC
  0
SECTION
  2
TABLES
  0
TABLE
  2
LTYPE
 70
9
  0
LTYPE
  2
CONTINUOUS
 70
64
  3
Solid line
 72
65
 73
0
 40
0
  0
LTYPE
  2
DASHED
 70
64
  3
__ __ __ __ __ __ __ __ __
 72
65
 73
2
 40
0.75
 49
0.5
 49
-0.25
  0
LTYPE
  2
DOT
 70
64
  3
...........................
 72
65
 73
2
 40
0.25
 49
0
 49
-0.25
  0
LTYPE
  2
DASHDOT
 70
64
  3
__ . __ . __ . __ . __ . __ . 
 72
65
 73
4
 40
1
 49
0.5
 49
-0.25
 49
0
 49
-0.25
  0
ENDTAB
  0
TABLE
  2
LAYER
 70
10
  0
LAYER
  2
1
 70
0
 62
7
  6
CONTINUOUS
  0
LAYER
  2
CONNECTIONS
 70
0
 62
-7
  6
CONTINUOUS
  0
ENDTAB
  0
ENDSEC
  0
SECTION
  2
BLOCKS
  0
BLOCK
  8
0
  2
TRICON
 70
0
 10
0
 20
0
  0
POLYLINE
  8
1
 70
1
 66
1
 40
0.5
 41
0.5
  0
VERTEX
  8
1
 10
-0.25
 20
0
 42
1
  0
VERTEX
  8
1
 10
0.25
 20
0
 42
1
  0
SEQEND
  8
1
  0
ENDBLK
  8
0
  0
BLOCK
  8
0
  2
TRICONSMALL
 70
0
 10
0
 20
0
  0
POLYLINE
  8
1
 70
1
 66
1
 40
0.25
 41
0.25
  0
VERTEX
  8
1
 10
-0.125
 20
0
 42
1
  0
VERTEX
  8
1
 10
0.125
 20
0
 42
1
  0
SEQEND
  8
1
  0
ENDBLK
  8
0
  0
BLOCK
  8
0
  2
TRICONCIRCLE
 70
0
 10
0
 20
0
  0
CIRCLE
  8
1
 10
0
 20
0
 40
0.5
  0
ENDBLK
  8
0
  0
BLOCK
  8
0
  2
LCBP0
 70
0
 10
0
 20
0
  0
LINE
  8
1
 10
0
 20
-0.46875
 11
0
 21
0.46875
  0
ENDBLK
  8
0
  0
BLOCK
  8
0
  2
LCBP1
 70
0
 10
0
 20
0
  0
LINE
  8
1
 10
0
 20
-0.625
 11
0
 21
0.625
  0
ENDBLK
  8
0
  0
BLOCK
  8
0
  2
LCBP2
 70
0
 10
0
 20
0
  0
LINE
  8
1
 10
0
 20
-0.9375
 11
0
 21
0.9375
  0
ENDBLK
  8
0
  0
BLOCK
  8
0
  2
LCA1
 70
0
 10
0
 20
0
  0
SOLID
  8
1
 62
7 
 10
0
 20
0
 11
-1.4
 21
-0.275
 12
-1.4
 22
0.275
 13
-1.4
 23
0.275
  0
ENDBLK
  8
0
  0
BLOCK
  8
0
  2
LCA2
 70
0
 10
0
 20
0
  0
SOLID
  8
1
 62
7 
 10
0
 20
0
 11
-1.65
 21
-0.525
 12
-1.65
 22
0.525
 13
-1.65
 23
0.525
  0
ENDBLK
  8
0
  0
BLOCK
  8
0
  2
LCA3
 70
0
 10
0
 20
0
  0
SOLID
  8
1
 62
7 
 10
0
 20
0
 11
-2.15
 21
-1.15
 12
-2.15
 22
1.15
 13
-2.15
 23
1.15
  0
ENDBLK
  8
0
  0
BLOCK
  8
0
  2
LCA1R
 70
0
 10
0
 20
0
  0
SOLID
  8
1
 62
7 
 10
0
 20
0
 11
1.4
 21
-0.275
 12
1.4
 22
0.275
 13
1.4
 23
0.275
  0
ENDBLK
  8
0
  0
BLOCK
  8
0
  2
LCA2R
 70
0
 10
0
 20
0
  0
SOLID
  8
1
 62
7 
 10
0
 20
0
 11
1.65
 21
-0.525
 12
1.65
 22
0.525
 13
1.65
 23
0.525
  0
ENDBLK
  8
0
  0
BLOCK
  8
0
  2
LCA3R
 70
0
 10
0
 20
0
  0
SOLID
  8
1
 62
7 
 10
0
 20
0
 11
2.15
 21
-1.15
 12
2.15
 22
1.15
 13
2.15
 23
1.15
  0
ENDBLK
  8
0
  0
BLOCK
  8
0
  2
B66649_00995401
 70
0
 10
0
 20
0
  0
TEXT
  8
1
 40
2.4
 41
0.75
  1
10
  7
STANDARD
 10
13.4758042653402
 20
-7.53611629803975
  0
TEXT
  8
1
 40
2.4
 41
0.75
  1
12
  7
STANDARD
 10
-21.2169427235921
 20
1.56388370196024
  0
TEXT
  8
1
 40
2.4
 41
0.75
  1
3
  7
STANDARD
 73
3
 10
6.00814743041992
 20
-4.56388370196025
 11
6.00814743041992
 21
-4.56388370196025
  0
TEXT
  8
1
 40
2.4
 41
0.75
  1
1
  7
STANDARD
 72
2
 73
3
 10
0.608147430419928
 20
-4.56388370196025
 11
0.608147430419928
 21
-4.56388370196025
  0
TEXT
  8
1
 40
2.4
 41
0.75
  1
2
  7
STANDARD
 72
2
 10
0.908147430419922
 20
6.59165110588074
 11
0.908147430419922
 21
6.59165110588074
  0
LINE
  8
1
 10
5.20814743041992
 20
-3.26388370196025
 11
5.20814743041992
 21
-7.26388370196025
  0
LINE
  8
1
 10
1.20814743041992
 20
-3.26388370196025
 11
1.20814743041992
 21
-7.26388370196025
  0
LINE
  8
1
 10
1.20814743041992
 20
4.73611629803975
 11
1.20814743041992
 21
8.73611629803975
  0
LINE
  8
1
 10
13.2081474304199
 20
-7.26388370196025
 11
13.2081474304199
 21
-3.26388370196025
  0
POLYLINE
  8
1
 66
1
  0
VERTEX
  8
1
 10
7.2081474304199
 20
0.736116298039743
  0
VERTEX
  8
1
 10
13.2081474304199
 20
0.736116298039743
  0
VERTEX
  8
1
 10
13.2081474304199
 20
-3.26388370196026
  0
VERTEX
  8
1
 10
7.2081474304199
 20
-3.26388370196026
  0
VERTEX
  8
1
 10
7.2081474304199
 20
0.736116298039743
  0
SEQEND
  8
1
  0
LINE
  8
1
 10
13.2028369011241
 20
0.697380672588258
 11
9.7773791486155
 21
-1.26388370196025
  0
LINE
  8
1
 10
9.74404581528217
 20
-1.26388370196025
 11
7.20814743041992
 21
-1.26388370196025
  0
LINE
  8
1
 10
13.2081474304199
 20
-3.26388370196025
 11
9.74404581528217
 21
-1.26388370196025
  0
LINE
  8
1
 10
-12.7918525695731
 20
-1.26388370196025
 11
-8.79185256958008
 21
-1.26388370196025
  0
LINE
  8
1
 10
-16.2559411625422
 20
-1.26387618360767
 11
-18.7918525695801
 21
-1.26387618360767
  0
LINE
  8
1
 10
-16.2559411625422
 20
0.736123816392331
 11
-16.2559411625422
 21
-3.26387618360767
  0
LINE
  8
1
 10
-16.2559411625422
 20
0.736123816392331
 11
-12.7918395474044
 21
-1.26387618360767
  0
LINE
  8
1
 10
-16.2559411625422
 20
-3.26387618360767
 11
-12.7918395474044
 21
-1.26387618360767
  0
LINE
  8
1
 10
1.20814743041992
 20
-3.26388370196025
 11
1.20814743041992
 21
-1.26388370196025
  0
INSERT
  8
1
  2
LCBP1
 10
1.20814743041992
 20
-1.26388370196025
 50
90
  0
POLYLINE
  8
1
 66
1
  0
VERTEX
  8
1
 10
-0.791852569580077
 20
4.73611629803975
  0
VERTEX
  8
1
 10
7.20814743041992
 20
4.73611629803975
  0
VERTEX
  8
1
 10
7.20814743041992
 20
-3.26388370196025
  0
VERTEX
  8
1
 10
-0.791852569580077
 20
-3.26388370196025
  0
VERTEX
  8
1
 10
-0.791852569580077
 20
4.73611629803975
  0
SEQEND
  8
1
  0
LINE
  8
1
 10
1.20814743041992
 20
4.73611629803975
 11
5.20814743041992
 21
-3.26388370196025
  0
INSERT
  8
1
  2
LCA1
 10
5.20814743041992
 20
-3.26388370196025
 50
-63.434948822922
  0
INSERT
  8
1
  2
LCA1R
 10
1.20814743041992
 20
4.73611629803975
 50
-63.434948822922
  0
LINE
  8
1
 10
-2.79185256958008
 20
-3.26388370196025
 11
-2.79185256958008
 21
-1.26388370196025
  0
INSERT
  8
1
  2
LCBP1
 10
-2.79185256958008
 20
-1.26388370196025
 50
90
  0
POLYLINE
  8
1
 66
1
  0
VERTEX
  8
1
 10
-8.79185256958008
 20
4.73611629803975
  0
VERTEX
  8
1
 10
-0.791852569580076
 20
4.73611629803975
  0
VERTEX
  8
1
 10
-0.791852569580076
 20
-3.26388370196025
  0
VERTEX
  8
1
 10
-8.79185256958008
 20
-3.26388370196025
  0
VERTEX
  8
1
 10
-8.79185256958008
 20
4.73611629803975
  0
SEQEND
  8
1
  0
LINE
  8
1
 10
-6.79185256958008
 20
-3.26388370196025
 11
-6.79185256958008
 21
4.73611629803975
  0
INSERT
  8
1
  2
LCA1
 10
-6.79185256958008
 20
4.73611629803975
 50
90
  0
INSERT
  8
1
  2
LCA1R
 10
-6.79185256958008
 20
-3.26388370196025
 50
90
  0
CIRCLE
  8
CONNECTIONS
 10
-18.7918525695801
 20
-1.26388370196025
 40
0
  0
CIRCLE
  8
CONNECTIONS
 10
1.20814743041992
 20
8.73611629803975
 40
0
  0
CIRCLE
  8
CONNECTIONS
 10
1.20814743041992
 20
-7.26388370196025
 40
0
  0
CIRCLE
  8
CONNECTIONS
 10
5.20814743041992
 20
-7.26388370196025
 40
0
  0
ENDBLK
  8
0
  0
ENDSEC
  0
SECTION
  2
ENTITIES
  0
INSERT
  8
1
  2
B66649_00995401
 10
18.7918525695801
 20
8.73611629803975
  0
ENDSEC
  0
EOF
